ISO-10303-21;
HEADER;
/* Generated by software containing ST-Developer
 * from STEP Tools, Inc. (www.steptools.com) 
 */

FILE_DESCRIPTION(
/* description */ (''),
/* implementation_level */ '2;1');

FILE_NAME(
/* name */ 
'C:\\Users\\Trevor\\Desktop\\Fusion360Export\\Electronic Models\\Dual 
Rocker Switch_v2.step',
/* time_stamp */ '2021-12-11T14:12:28-07:00',
/* author */ (''),
/* organization */ (''),
/* preprocessor_version */ 'ST-DEVELOPER v18.1',
/* originating_system */ 'Autodesk Translation Framework v10.10.0.1391',

/* authorisation */ '');

FILE_SCHEMA (('AUTOMOTIVE_DESIGN { 1 0 10303 214 3 1 1 }'));
ENDSEC;

DATA;
#10=MECHANICAL_DESIGN_GEOMETRIC_PRESENTATION_REPRESENTATION('',(#311,#312,
#313,#314,#315,#316,#317,#318,#319),#555);
#11=SHAPE_REPRESENTATION_RELATIONSHIP('SRR','None',#565,#12);
#12=ADVANCED_BREP_SHAPE_REPRESENTATION('',(#13),#554);
#13=MANIFOLD_SOLID_BREP('Body1',#339);
#14=FACE_BOUND('',#51,.T.);
#15=FACE_BOUND('',#57,.T.);
#16=FACE_BOUND('',#58,.T.);
#17=CIRCLE('',#355,0.214265932623446);
#18=CIRCLE('',#356,0.214265932623446);
#19=CIRCLE('',#361,0.214265932623446);
#20=CIRCLE('',#362,0.214265932623446);
#21=CYLINDRICAL_SURFACE('',#354,0.214265932623446);
#22=CYLINDRICAL_SURFACE('',#360,0.214265932623446);
#23=FACE_OUTER_BOUND('',#42,.T.);
#24=FACE_OUTER_BOUND('',#43,.T.);
#25=FACE_OUTER_BOUND('',#44,.T.);
#26=FACE_OUTER_BOUND('',#45,.T.);
#27=FACE_OUTER_BOUND('',#46,.T.);
#28=FACE_OUTER_BOUND('',#47,.T.);
#29=FACE_OUTER_BOUND('',#48,.T.);
#30=FACE_OUTER_BOUND('',#49,.T.);
#31=FACE_OUTER_BOUND('',#50,.T.);
#32=FACE_OUTER_BOUND('',#52,.T.);
#33=FACE_OUTER_BOUND('',#53,.T.);
#34=FACE_OUTER_BOUND('',#54,.T.);
#35=FACE_OUTER_BOUND('',#55,.T.);
#36=FACE_OUTER_BOUND('',#56,.T.);
#37=FACE_OUTER_BOUND('',#59,.T.);
#38=FACE_OUTER_BOUND('',#60,.T.);
#39=FACE_OUTER_BOUND('',#61,.T.);
#40=FACE_OUTER_BOUND('',#62,.T.);
#41=FACE_OUTER_BOUND('',#63,.T.);
#42=EDGE_LOOP('',(#210,#211,#212,#213));
#43=EDGE_LOOP('',(#214,#215,#216,#217));
#44=EDGE_LOOP('',(#218,#219,#220));
#45=EDGE_LOOP('',(#221,#222,#223));
#46=EDGE_LOOP('',(#224,#225,#226,#227));
#47=EDGE_LOOP('',(#228,#229,#230,#231));
#48=EDGE_LOOP('',(#232,#233,#234));
#49=EDGE_LOOP('',(#235,#236,#237));
#50=EDGE_LOOP('',(#238,#239,#240,#241));
#51=EDGE_LOOP('',(#242,#243,#244,#245));
#52=EDGE_LOOP('',(#246,#247,#248,#249));
#53=EDGE_LOOP('',(#250,#251,#252,#253));
#54=EDGE_LOOP('',(#254,#255,#256,#257));
#55=EDGE_LOOP('',(#258,#259,#260,#261));
#56=EDGE_LOOP('',(#262,#263,#264,#265));
#57=EDGE_LOOP('',(#266,#267,#268,#269));
#58=EDGE_LOOP('',(#270,#271,#272,#273));
#59=EDGE_LOOP('',(#274,#275,#276,#277));
#60=EDGE_LOOP('',(#278,#279,#280,#281));
#61=EDGE_LOOP('',(#282,#283,#284,#285));
#62=EDGE_LOOP('',(#286,#287,#288,#289));
#63=EDGE_LOOP('',(#290,#291,#292,#293));
#64=LINE('',#466,#102);
#65=LINE('',#468,#103);
#66=LINE('',#470,#104);
#67=LINE('',#471,#105);
#68=LINE('',#477,#106);
#69=LINE('',#479,#107);
#70=LINE('',#481,#108);
#71=LINE('',#485,#109);
#72=LINE('',#487,#110);
#73=LINE('',#489,#111);
#74=LINE('',#490,#112);
#75=LINE('',#495,#113);
#76=LINE('',#498,#114);
#77=LINE('',#500,#115);
#78=LINE('',#504,#116);
#79=LINE('',#506,#117);
#80=LINE('',#508,#118);
#81=LINE('',#509,#119);
#82=LINE('',#512,#120);
#83=LINE('',#514,#121);
#84=LINE('',#516,#122);
#85=LINE('',#517,#123);
#86=LINE('',#520,#124);
#87=LINE('',#522,#125);
#88=LINE('',#523,#126);
#89=LINE('',#526,#127);
#90=LINE('',#527,#128);
#91=LINE('',#530,#129);
#92=LINE('',#531,#130);
#93=LINE('',#533,#131);
#94=LINE('',#537,#132);
#95=LINE('',#539,#133);
#96=LINE('',#540,#134);
#97=LINE('',#543,#135);
#98=LINE('',#544,#136);
#99=LINE('',#547,#137);
#100=LINE('',#548,#138);
#101=LINE('',#550,#139);
#102=VECTOR('',#380,0.393700787401575);
#103=VECTOR('',#381,0.393700787401575);
#104=VECTOR('',#382,0.393700787401575);
#105=VECTOR('',#383,0.393700787401575);
#106=VECTOR('',#390,0.393700787401575);
#107=VECTOR('',#393,0.393700787401575);
#108=VECTOR('',#396,0.393700787401575);
#109=VECTOR('',#399,0.393700787401575);
#110=VECTOR('',#400,0.393700787401575);
#111=VECTOR('',#401,0.393700787401575);
#112=VECTOR('',#402,0.393700787401575);
#113=VECTOR('',#407,0.393700787401575);
#114=VECTOR('',#412,0.393700787401575);
#115=VECTOR('',#415,0.393700787401575);
#116=VECTOR('',#418,0.393700787401575);
#117=VECTOR('',#419,0.393700787401575);
#118=VECTOR('',#420,0.393700787401575);
#119=VECTOR('',#421,0.393700787401575);
#120=VECTOR('',#422,0.393700787401575);
#121=VECTOR('',#423,0.393700787401575);
#122=VECTOR('',#424,0.393700787401575);
#123=VECTOR('',#425,0.393700787401575);
#124=VECTOR('',#428,0.393700787401575);
#125=VECTOR('',#429,0.393700787401575);
#126=VECTOR('',#430,0.393700787401575);
#127=VECTOR('',#433,0.393700787401575);
#128=VECTOR('',#434,0.393700787401575);
#129=VECTOR('',#437,0.393700787401575);
#130=VECTOR('',#438,0.393700787401575);
#131=VECTOR('',#441,0.393700787401575);
#132=VECTOR('',#446,0.393700787401575);
#133=VECTOR('',#447,0.393700787401575);
#134=VECTOR('',#448,0.393700787401575);
#135=VECTOR('',#451,0.393700787401575);
#136=VECTOR('',#452,0.393700787401575);
#137=VECTOR('',#455,0.393700787401575);
#138=VECTOR('',#456,0.393700787401575);
#139=VECTOR('',#459,0.393700787401575);
#140=VERTEX_POINT('',#464);
#141=VERTEX_POINT('',#465);
#142=VERTEX_POINT('',#467);
#143=VERTEX_POINT('',#469);
#144=VERTEX_POINT('',#473);
#145=VERTEX_POINT('',#475);
#146=VERTEX_POINT('',#483);
#147=VERTEX_POINT('',#484);
#148=VERTEX_POINT('',#486);
#149=VERTEX_POINT('',#488);
#150=VERTEX_POINT('',#492);
#151=VERTEX_POINT('',#494);
#152=VERTEX_POINT('',#502);
#153=VERTEX_POINT('',#503);
#154=VERTEX_POINT('',#505);
#155=VERTEX_POINT('',#507);
#156=VERTEX_POINT('',#510);
#157=VERTEX_POINT('',#511);
#158=VERTEX_POINT('',#513);
#159=VERTEX_POINT('',#515);
#160=VERTEX_POINT('',#519);
#161=VERTEX_POINT('',#521);
#162=VERTEX_POINT('',#525);
#163=VERTEX_POINT('',#529);
#164=VERTEX_POINT('',#536);
#165=VERTEX_POINT('',#538);
#166=VERTEX_POINT('',#542);
#167=VERTEX_POINT('',#546);
#168=EDGE_CURVE('',#140,#141,#64,.T.);
#169=EDGE_CURVE('',#142,#140,#65,.T.);
#170=EDGE_CURVE('',#142,#143,#66,.T.);
#171=EDGE_CURVE('',#141,#143,#67,.T.);
#172=EDGE_CURVE('',#141,#144,#17,.T.);
#173=EDGE_CURVE('',#143,#145,#18,.T.);
#174=EDGE_CURVE('',#144,#145,#68,.T.);
#175=EDGE_CURVE('',#145,#142,#69,.T.);
#176=EDGE_CURVE('',#140,#144,#70,.T.);
#177=EDGE_CURVE('',#146,#147,#71,.T.);
#178=EDGE_CURVE('',#147,#148,#72,.T.);
#179=EDGE_CURVE('',#149,#148,#73,.T.);
#180=EDGE_CURVE('',#146,#149,#74,.T.);
#181=EDGE_CURVE('',#147,#150,#19,.T.);
#182=EDGE_CURVE('',#151,#150,#75,.T.);
#183=EDGE_CURVE('',#148,#151,#20,.T.);
#184=EDGE_CURVE('',#149,#151,#76,.T.);
#185=EDGE_CURVE('',#150,#146,#77,.T.);
#186=EDGE_CURVE('',#152,#153,#78,.T.);
#187=EDGE_CURVE('',#153,#154,#79,.T.);
#188=EDGE_CURVE('',#154,#155,#80,.T.);
#189=EDGE_CURVE('',#155,#152,#81,.T.);
#190=EDGE_CURVE('',#156,#157,#82,.T.);
#191=EDGE_CURVE('',#158,#156,#83,.T.);
#192=EDGE_CURVE('',#159,#158,#84,.T.);
#193=EDGE_CURVE('',#157,#159,#85,.T.);
#194=EDGE_CURVE('',#153,#160,#86,.T.);
#195=EDGE_CURVE('',#161,#160,#87,.T.);
#196=EDGE_CURVE('',#154,#161,#88,.T.);
#197=EDGE_CURVE('',#162,#161,#89,.T.);
#198=EDGE_CURVE('',#155,#162,#90,.T.);
#199=EDGE_CURVE('',#163,#162,#91,.T.);
#200=EDGE_CURVE('',#152,#163,#92,.T.);
#201=EDGE_CURVE('',#160,#163,#93,.T.);
#202=EDGE_CURVE('',#157,#164,#94,.T.);
#203=EDGE_CURVE('',#165,#164,#95,.T.);
#204=EDGE_CURVE('',#156,#165,#96,.T.);
#205=EDGE_CURVE('',#166,#165,#97,.T.);
#206=EDGE_CURVE('',#158,#166,#98,.T.);
#207=EDGE_CURVE('',#167,#166,#99,.T.);
#208=EDGE_CURVE('',#159,#167,#100,.T.);
#209=EDGE_CURVE('',#164,#167,#101,.T.);
#210=ORIENTED_EDGE('',*,*,#168,.F.);
#211=ORIENTED_EDGE('',*,*,#169,.F.);
#212=ORIENTED_EDGE('',*,*,#170,.T.);
#213=ORIENTED_EDGE('',*,*,#171,.F.);
#214=ORIENTED_EDGE('',*,*,#172,.F.);
#215=ORIENTED_EDGE('',*,*,#171,.T.);
#216=ORIENTED_EDGE('',*,*,#173,.T.);
#217=ORIENTED_EDGE('',*,*,#174,.F.);
#218=ORIENTED_EDGE('',*,*,#173,.F.);
#219=ORIENTED_EDGE('',*,*,#170,.F.);
#220=ORIENTED_EDGE('',*,*,#175,.F.);
#221=ORIENTED_EDGE('',*,*,#172,.T.);
#222=ORIENTED_EDGE('',*,*,#176,.F.);
#223=ORIENTED_EDGE('',*,*,#168,.T.);
#224=ORIENTED_EDGE('',*,*,#177,.T.);
#225=ORIENTED_EDGE('',*,*,#178,.T.);
#226=ORIENTED_EDGE('',*,*,#179,.F.);
#227=ORIENTED_EDGE('',*,*,#180,.F.);
#228=ORIENTED_EDGE('',*,*,#181,.T.);
#229=ORIENTED_EDGE('',*,*,#182,.F.);
#230=ORIENTED_EDGE('',*,*,#183,.F.);
#231=ORIENTED_EDGE('',*,*,#178,.F.);
#232=ORIENTED_EDGE('',*,*,#183,.T.);
#233=ORIENTED_EDGE('',*,*,#184,.F.);
#234=ORIENTED_EDGE('',*,*,#179,.T.);
#235=ORIENTED_EDGE('',*,*,#181,.F.);
#236=ORIENTED_EDGE('',*,*,#177,.F.);
#237=ORIENTED_EDGE('',*,*,#185,.F.);
#238=ORIENTED_EDGE('',*,*,#186,.T.);
#239=ORIENTED_EDGE('',*,*,#187,.T.);
#240=ORIENTED_EDGE('',*,*,#188,.T.);
#241=ORIENTED_EDGE('',*,*,#189,.T.);
#242=ORIENTED_EDGE('',*,*,#190,.F.);
#243=ORIENTED_EDGE('',*,*,#191,.F.);
#244=ORIENTED_EDGE('',*,*,#192,.F.);
#245=ORIENTED_EDGE('',*,*,#193,.F.);
#246=ORIENTED_EDGE('',*,*,#187,.F.);
#247=ORIENTED_EDGE('',*,*,#194,.T.);
#248=ORIENTED_EDGE('',*,*,#195,.F.);
#249=ORIENTED_EDGE('',*,*,#196,.F.);
#250=ORIENTED_EDGE('',*,*,#188,.F.);
#251=ORIENTED_EDGE('',*,*,#196,.T.);
#252=ORIENTED_EDGE('',*,*,#197,.F.);
#253=ORIENTED_EDGE('',*,*,#198,.F.);
#254=ORIENTED_EDGE('',*,*,#189,.F.);
#255=ORIENTED_EDGE('',*,*,#198,.T.);
#256=ORIENTED_EDGE('',*,*,#199,.F.);
#257=ORIENTED_EDGE('',*,*,#200,.F.);
#258=ORIENTED_EDGE('',*,*,#186,.F.);
#259=ORIENTED_EDGE('',*,*,#200,.T.);
#260=ORIENTED_EDGE('',*,*,#201,.F.);
#261=ORIENTED_EDGE('',*,*,#194,.F.);
#262=ORIENTED_EDGE('',*,*,#201,.T.);
#263=ORIENTED_EDGE('',*,*,#199,.T.);
#264=ORIENTED_EDGE('',*,*,#197,.T.);
#265=ORIENTED_EDGE('',*,*,#195,.T.);
#266=ORIENTED_EDGE('',*,*,#174,.T.);
#267=ORIENTED_EDGE('',*,*,#175,.T.);
#268=ORIENTED_EDGE('',*,*,#169,.T.);
#269=ORIENTED_EDGE('',*,*,#176,.T.);
#270=ORIENTED_EDGE('',*,*,#182,.T.);
#271=ORIENTED_EDGE('',*,*,#185,.T.);
#272=ORIENTED_EDGE('',*,*,#180,.T.);
#273=ORIENTED_EDGE('',*,*,#184,.T.);
#274=ORIENTED_EDGE('',*,*,#190,.T.);
#275=ORIENTED_EDGE('',*,*,#202,.T.);
#276=ORIENTED_EDGE('',*,*,#203,.F.);
#277=ORIENTED_EDGE('',*,*,#204,.F.);
#278=ORIENTED_EDGE('',*,*,#191,.T.);
#279=ORIENTED_EDGE('',*,*,#204,.T.);
#280=ORIENTED_EDGE('',*,*,#205,.F.);
#281=ORIENTED_EDGE('',*,*,#206,.F.);
#282=ORIENTED_EDGE('',*,*,#192,.T.);
#283=ORIENTED_EDGE('',*,*,#206,.T.);
#284=ORIENTED_EDGE('',*,*,#207,.F.);
#285=ORIENTED_EDGE('',*,*,#208,.F.);
#286=ORIENTED_EDGE('',*,*,#193,.T.);
#287=ORIENTED_EDGE('',*,*,#208,.T.);
#288=ORIENTED_EDGE('',*,*,#209,.F.);
#289=ORIENTED_EDGE('',*,*,#202,.F.);
#290=ORIENTED_EDGE('',*,*,#209,.T.);
#291=ORIENTED_EDGE('',*,*,#207,.T.);
#292=ORIENTED_EDGE('',*,*,#205,.T.);
#293=ORIENTED_EDGE('',*,*,#203,.T.);
#294=PLANE('',#353);
#295=PLANE('',#357);
#296=PLANE('',#358);
#297=PLANE('',#359);
#298=PLANE('',#363);
#299=PLANE('',#364);
#300=PLANE('',#365);
#301=PLANE('',#366);
#302=PLANE('',#367);
#303=PLANE('',#368);
#304=PLANE('',#369);
#305=PLANE('',#370);
#306=PLANE('',#371);
#307=PLANE('',#372);
#308=PLANE('',#373);
#309=PLANE('',#374);
#310=PLANE('',#375);
#311=STYLED_ITEM('',(#576),#320);
#312=STYLED_ITEM('',(#576),#321);
#313=STYLED_ITEM('',(#576),#322);
#314=STYLED_ITEM('',(#576),#323);
#315=STYLED_ITEM('',(#576),#324);
#316=STYLED_ITEM('',(#576),#325);
#317=STYLED_ITEM('',(#576),#326);
#318=STYLED_ITEM('',(#576),#327);
#319=STYLED_ITEM('',(#575),#13);
#320=ADVANCED_FACE('',(#23),#294,.F.);
#321=ADVANCED_FACE('',(#24),#21,.T.);
#322=ADVANCED_FACE('',(#25),#295,.F.);
#323=ADVANCED_FACE('',(#26),#296,.T.);
#324=ADVANCED_FACE('',(#27),#297,.T.);
#325=ADVANCED_FACE('',(#28),#22,.T.);
#326=ADVANCED_FACE('',(#29),#298,.T.);
#327=ADVANCED_FACE('',(#30),#299,.F.);
#328=ADVANCED_FACE('',(#31,#14),#300,.F.);
#329=ADVANCED_FACE('',(#32),#301,.T.);
#330=ADVANCED_FACE('',(#33),#302,.T.);
#331=ADVANCED_FACE('',(#34),#303,.T.);
#332=ADVANCED_FACE('',(#35),#304,.T.);
#333=ADVANCED_FACE('',(#36,#15,#16),#305,.T.);
#334=ADVANCED_FACE('',(#37),#306,.T.);
#335=ADVANCED_FACE('',(#38),#307,.T.);
#336=ADVANCED_FACE('',(#39),#308,.T.);
#337=ADVANCED_FACE('',(#40),#309,.T.);
#338=ADVANCED_FACE('',(#41),#310,.T.);
#339=CLOSED_SHELL('',(#320,#321,#322,#323,#324,#325,#326,#327,#328,#329,
#330,#331,#332,#333,#334,#335,#336,#337,#338));
#340=DERIVED_UNIT_ELEMENT(#342,1.);
#341=DERIVED_UNIT_ELEMENT(#559,-3.);
#342=(
MASS_UNIT()
NAMED_UNIT(*)
SI_UNIT(.KILO.,.GRAM.)
);
#343=DERIVED_UNIT((#340,#341));
#344=MEASURE_REPRESENTATION_ITEM('density measure',
POSITIVE_RATIO_MEASURE(1060.),#343);
#345=PROPERTY_DEFINITION_REPRESENTATION(#350,#347);
#346=PROPERTY_DEFINITION_REPRESENTATION(#351,#348);
#347=REPRESENTATION('material name',(#349),#554);
#348=REPRESENTATION('density',(#344),#554);
#349=DESCRIPTIVE_REPRESENTATION_ITEM('ABS Plastic','ABS Plastic');
#350=PROPERTY_DEFINITION('material property','material name',#567);
#351=PROPERTY_DEFINITION('material property','density of part',#567);
#352=AXIS2_PLACEMENT_3D('placement',#462,#376,#377);
#353=AXIS2_PLACEMENT_3D('',#463,#378,#379);
#354=AXIS2_PLACEMENT_3D('',#472,#384,#385);
#355=AXIS2_PLACEMENT_3D('',#474,#386,#387);
#356=AXIS2_PLACEMENT_3D('',#476,#388,#389);
#357=AXIS2_PLACEMENT_3D('',#478,#391,#392);
#358=AXIS2_PLACEMENT_3D('',#480,#394,#395);
#359=AXIS2_PLACEMENT_3D('',#482,#397,#398);
#360=AXIS2_PLACEMENT_3D('',#491,#403,#404);
#361=AXIS2_PLACEMENT_3D('',#493,#405,#406);
#362=AXIS2_PLACEMENT_3D('',#496,#408,#409);
#363=AXIS2_PLACEMENT_3D('',#497,#410,#411);
#364=AXIS2_PLACEMENT_3D('',#499,#413,#414);
#365=AXIS2_PLACEMENT_3D('',#501,#416,#417);
#366=AXIS2_PLACEMENT_3D('',#518,#426,#427);
#367=AXIS2_PLACEMENT_3D('',#524,#431,#432);
#368=AXIS2_PLACEMENT_3D('',#528,#435,#436);
#369=AXIS2_PLACEMENT_3D('',#532,#439,#440);
#370=AXIS2_PLACEMENT_3D('',#534,#442,#443);
#371=AXIS2_PLACEMENT_3D('',#535,#444,#445);
#372=AXIS2_PLACEMENT_3D('',#541,#449,#450);
#373=AXIS2_PLACEMENT_3D('',#545,#453,#454);
#374=AXIS2_PLACEMENT_3D('',#549,#457,#458);
#375=AXIS2_PLACEMENT_3D('',#551,#460,#461);
#376=DIRECTION('axis',(0.,0.,1.));
#377=DIRECTION('refdir',(1.,0.,0.));
#378=DIRECTION('center_axis',(0.,0.974650150810718,0.2237344039808));
#379=DIRECTION('ref_axis',(0.,-0.2237344039808,0.974650150810718));
#380=DIRECTION('',(0.,-0.2237344039808,0.974650150810718));
#381=DIRECTION('',(-1.,0.,0.));
#382=DIRECTION('',(0.,-0.2237344039808,0.974650150810718));
#383=DIRECTION('',(1.,0.,0.));
#384=DIRECTION('center_axis',(-1.,0.,0.));
#385=DIRECTION('ref_axis',(0.,-0.997646404319435,0.0685685930182473));
#386=DIRECTION('center_axis',(-1.,0.,0.));
#387=DIRECTION('ref_axis',(0.,-0.997646404319435,0.0685685930182473));
#388=DIRECTION('center_axis',(-1.,0.,0.));
#389=DIRECTION('ref_axis',(0.,-0.997646404319435,0.0685685930182473));
#390=DIRECTION('',(1.,0.,0.));
#391=DIRECTION('center_axis',(-1.,0.,0.));
#392=DIRECTION('ref_axis',(0.,1.,0.));
#393=DIRECTION('',(0.,0.,-1.));
#394=DIRECTION('center_axis',(-1.,0.,0.));
#395=DIRECTION('ref_axis',(0.,1.,0.));
#396=DIRECTION('',(0.,0.,1.));
#397=DIRECTION('center_axis',(0.,-0.974650150810718,-0.2237344039808));
#398=DIRECTION('ref_axis',(0.,-0.2237344039808,0.974650150810718));
#399=DIRECTION('',(0.,-0.2237344039808,0.974650150810718));
#400=DIRECTION('',(-1.,0.,0.));
#401=DIRECTION('',(0.,-0.2237344039808,0.974650150810718));
#402=DIRECTION('',(-1.,0.,0.));
#403=DIRECTION('center_axis',(-1.,0.,0.));
#404=DIRECTION('ref_axis',(0.,-0.997646404319435,0.0685685930182473));
#405=DIRECTION('center_axis',(-1.,0.,0.));
#406=DIRECTION('ref_axis',(0.,-0.997646404319435,0.0685685930182473));
#407=DIRECTION('',(1.,0.,0.));
#408=DIRECTION('center_axis',(-1.,0.,0.));
#409=DIRECTION('ref_axis',(0.,-0.997646404319435,0.0685685930182473));
#410=DIRECTION('center_axis',(-1.,0.,0.));
#411=DIRECTION('ref_axis',(0.,1.,0.));
#412=DIRECTION('',(0.,0.,1.));
#413=DIRECTION('center_axis',(-1.,0.,0.));
#414=DIRECTION('ref_axis',(0.,1.,0.));
#415=DIRECTION('',(0.,0.,-1.));
#416=DIRECTION('center_axis',(0.,-1.,0.));
#417=DIRECTION('ref_axis',(1.,0.,0.));
#418=DIRECTION('',(1.,0.,0.));
#419=DIRECTION('',(0.,0.,-1.));
#420=DIRECTION('',(-1.,0.,0.));
#421=DIRECTION('',(0.,0.,1.));
#422=DIRECTION('',(1.,0.,-1.01062584736713E-16));
#423=DIRECTION('',(0.,0.,1.));
#424=DIRECTION('',(-1.,0.,0.));
#425=DIRECTION('',(0.,0.,-1.));
#426=DIRECTION('center_axis',(1.,0.,0.));
#427=DIRECTION('ref_axis',(0.,0.,1.));
#428=DIRECTION('',(0.,-1.,0.));
#429=DIRECTION('',(0.,0.,1.));
#430=DIRECTION('',(0.,-1.,0.));
#431=DIRECTION('center_axis',(0.,0.,-1.));
#432=DIRECTION('ref_axis',(1.,0.,0.));
#433=DIRECTION('',(1.,0.,0.));
#434=DIRECTION('',(0.,-1.,0.));
#435=DIRECTION('center_axis',(-1.,0.,0.));
#436=DIRECTION('ref_axis',(0.,0.,-1.));
#437=DIRECTION('',(0.,0.,-1.));
#438=DIRECTION('',(0.,-1.,0.));
#439=DIRECTION('center_axis',(0.,0.,1.));
#440=DIRECTION('ref_axis',(-1.,0.,0.));
#441=DIRECTION('',(-1.,0.,0.));
#442=DIRECTION('center_axis',(0.,-1.,0.));
#443=DIRECTION('ref_axis',(0.,0.,-1.));
#444=DIRECTION('center_axis',(1.01062584736713E-16,0.,1.));
#445=DIRECTION('ref_axis',(1.,0.,-1.01062584736713E-16));
#446=DIRECTION('',(0.,1.,0.));
#447=DIRECTION('',(1.,0.,-1.01062584736713E-16));
#448=DIRECTION('',(0.,1.,0.));
#449=DIRECTION('center_axis',(-1.,0.,0.));
#450=DIRECTION('ref_axis',(0.,0.,1.));
#451=DIRECTION('',(0.,0.,1.));
#452=DIRECTION('',(0.,1.,0.));
#453=DIRECTION('center_axis',(0.,0.,-1.));
#454=DIRECTION('ref_axis',(-1.,0.,0.));
#455=DIRECTION('',(-1.,0.,0.));
#456=DIRECTION('',(0.,1.,0.));
#457=DIRECTION('center_axis',(1.,0.,0.));
#458=DIRECTION('ref_axis',(0.,0.,-1.));
#459=DIRECTION('',(0.,0.,-1.));
#460=DIRECTION('center_axis',(0.,1.,0.));
#461=DIRECTION('ref_axis',(0.,0.,1.));
#462=CARTESIAN_POINT('',(0.,0.,0.));
#463=CARTESIAN_POINT('Origin',(0.072,-0.075,-0.473));
#464=CARTESIAN_POINT('',(0.072,-0.075,-0.473));
#465=CARTESIAN_POINT('',(0.072,-0.247275491065216,0.277480616124253));
#466=CARTESIAN_POINT('',(0.072,-0.075,-0.473));
#467=CARTESIAN_POINT('',(0.385,-0.075,-0.473));
#468=CARTESIAN_POINT('',(0.036,-0.075,-0.473));
#469=CARTESIAN_POINT('',(0.385,-0.247275491065216,0.277480616124253));
#470=CARTESIAN_POINT('',(0.385,-0.075,-0.473));
#471=CARTESIAN_POINT('',(0.072,-0.247275491065216,0.277480616124253));
#472=CARTESIAN_POINT('Origin',(0.072,-0.0335138538152844,0.262788702592521));
#473=CARTESIAN_POINT('',(0.072,-0.075,0.473));
#474=CARTESIAN_POINT('Origin',(0.072,-0.0335138538152844,0.262788702592521));
#475=CARTESIAN_POINT('',(0.385,-0.075,0.473));
#476=CARTESIAN_POINT('Origin',(0.385,-0.0335138538152844,0.262788702592521));
#477=CARTESIAN_POINT('',(0.072,-0.075,0.473));
#478=CARTESIAN_POINT('Origin',(0.385,-0.161137745532608,0.));
#479=CARTESIAN_POINT('',(0.385,-0.075,0.));
#480=CARTESIAN_POINT('Origin',(0.072,-0.161137745532608,0.));
#481=CARTESIAN_POINT('',(0.072,-0.075,0.));
#482=CARTESIAN_POINT('Origin',(-0.072,-0.075,-0.473));
#483=CARTESIAN_POINT('',(-0.072,-0.075,-0.473));
#484=CARTESIAN_POINT('',(-0.072,-0.247275491065216,0.277480616124253));
#485=CARTESIAN_POINT('',(-0.072,-0.075,-0.473));
#486=CARTESIAN_POINT('',(-0.385,-0.247275491065216,0.277480616124253));
#487=CARTESIAN_POINT('',(-0.072,-0.247275491065216,0.277480616124253));
#488=CARTESIAN_POINT('',(-0.385,-0.075,-0.473));
#489=CARTESIAN_POINT('',(-0.385,-0.075,-0.473));
#490=CARTESIAN_POINT('',(-0.036,-0.075,-0.473));
#491=CARTESIAN_POINT('Origin',(-0.072,-0.0335138538152844,0.262788702592521));
#492=CARTESIAN_POINT('',(-0.072,-0.075,0.473));
#493=CARTESIAN_POINT('Origin',(-0.072,-0.0335138538152844,0.262788702592521));
#494=CARTESIAN_POINT('',(-0.385,-0.075,0.473));
#495=CARTESIAN_POINT('',(-0.072,-0.075,0.473));
#496=CARTESIAN_POINT('Origin',(-0.385,-0.0335138538152844,0.262788702592521));
#497=CARTESIAN_POINT('Origin',(-0.385,-0.161137745532608,0.));
#498=CARTESIAN_POINT('',(-0.385,-0.075,0.));
#499=CARTESIAN_POINT('Origin',(-0.072,-0.161137745532608,0.));
#500=CARTESIAN_POINT('',(-0.072,-0.075,0.));
#501=CARTESIAN_POINT('Origin',(0.,0.,0.));
#502=CARTESIAN_POINT('',(-0.48,0.,0.615));
#503=CARTESIAN_POINT('',(0.48,0.,0.615));
#504=CARTESIAN_POINT('',(-0.48,0.,0.615));
#505=CARTESIAN_POINT('',(0.48,0.,-0.615));
#506=CARTESIAN_POINT('',(0.48,0.,0.615));
#507=CARTESIAN_POINT('',(-0.48,0.,-0.615));
#508=CARTESIAN_POINT('',(0.48,0.,-0.615));
#509=CARTESIAN_POINT('',(-0.48,0.,-0.615));
#510=CARTESIAN_POINT('',(-0.4325,0.,0.5075));
#511=CARTESIAN_POINT('',(0.4325,0.,0.5075));
#512=CARTESIAN_POINT('',(-0.4325,0.,0.5075));
#513=CARTESIAN_POINT('',(-0.4325,0.,-0.5075));
#514=CARTESIAN_POINT('',(-0.4325,0.,-0.5075));
#515=CARTESIAN_POINT('',(0.4325,0.,-0.5075));
#516=CARTESIAN_POINT('',(0.4325,0.,-0.5075));
#517=CARTESIAN_POINT('',(0.4325,0.,0.5075));
#518=CARTESIAN_POINT('Origin',(0.48,0.,-0.615));
#519=CARTESIAN_POINT('',(0.48,-0.075,0.615));
#520=CARTESIAN_POINT('',(0.48,0.,0.615));
#521=CARTESIAN_POINT('',(0.48,-0.075,-0.615));
#522=CARTESIAN_POINT('',(0.48,-0.075,0.615));
#523=CARTESIAN_POINT('',(0.48,0.,-0.615));
#524=CARTESIAN_POINT('Origin',(-0.48,0.,-0.615));
#525=CARTESIAN_POINT('',(-0.48,-0.075,-0.615));
#526=CARTESIAN_POINT('',(0.48,-0.075,-0.615));
#527=CARTESIAN_POINT('',(-0.48,0.,-0.615));
#528=CARTESIAN_POINT('Origin',(-0.48,0.,0.615));
#529=CARTESIAN_POINT('',(-0.48,-0.075,0.615));
#530=CARTESIAN_POINT('',(-0.48,-0.075,-0.615));
#531=CARTESIAN_POINT('',(-0.48,0.,0.615));
#532=CARTESIAN_POINT('Origin',(0.48,0.,0.615));
#533=CARTESIAN_POINT('',(-0.48,-0.075,0.615));
#534=CARTESIAN_POINT('Origin',(0.,-0.075,0.));
#535=CARTESIAN_POINT('Origin',(-0.4325,0.,0.5075));
#536=CARTESIAN_POINT('',(0.4325,0.759,0.5075));
#537=CARTESIAN_POINT('',(0.4325,0.,0.5075));
#538=CARTESIAN_POINT('',(-0.4325,0.759,0.5075));
#539=CARTESIAN_POINT('',(-0.4325,0.759,0.5075));
#540=CARTESIAN_POINT('',(-0.4325,0.,0.5075));
#541=CARTESIAN_POINT('Origin',(-0.4325,0.,-0.5075));
#542=CARTESIAN_POINT('',(-0.4325,0.759,-0.5075));
#543=CARTESIAN_POINT('',(-0.4325,0.759,-0.5075));
#544=CARTESIAN_POINT('',(-0.4325,0.,-0.5075));
#545=CARTESIAN_POINT('Origin',(0.4325,0.,-0.5075));
#546=CARTESIAN_POINT('',(0.4325,0.759,-0.5075));
#547=CARTESIAN_POINT('',(0.4325,0.759,-0.5075));
#548=CARTESIAN_POINT('',(0.4325,0.,-0.5075));
#549=CARTESIAN_POINT('Origin',(0.4325,0.,0.5075));
#550=CARTESIAN_POINT('',(0.4325,0.759,0.5075));
#551=CARTESIAN_POINT('Origin',(-1.74838271594513E-16,0.759,0.));
#552=UNCERTAINTY_MEASURE_WITH_UNIT(LENGTH_MEASURE(0.000393700787401575),
#557,'DISTANCE_ACCURACY_VALUE',
'Maximum model space distance between geometric entities at asserted c
onnectivities');
#553=UNCERTAINTY_MEASURE_WITH_UNIT(LENGTH_MEASURE(0.000393700787401575),
#557,'DISTANCE_ACCURACY_VALUE',
'Maximum model space distance between geometric entities at asserted c
onnectivities');
#554=(
GEOMETRIC_REPRESENTATION_CONTEXT(3)
GLOBAL_UNCERTAINTY_ASSIGNED_CONTEXT((#552))
GLOBAL_UNIT_ASSIGNED_CONTEXT((#557,#561,#562))
REPRESENTATION_CONTEXT('','3D')
);
#555=(
GEOMETRIC_REPRESENTATION_CONTEXT(3)
GLOBAL_UNCERTAINTY_ASSIGNED_CONTEXT((#553))
GLOBAL_UNIT_ASSIGNED_CONTEXT((#557,#561,#562))
REPRESENTATION_CONTEXT('','3D')
);
#556=DIMENSIONAL_EXPONENTS(1.,0.,0.,0.,0.,0.,0.);
#557=(
CONVERSION_BASED_UNIT('inch',#560)
LENGTH_UNIT()
NAMED_UNIT(#556)
);
#558=(
LENGTH_UNIT()
NAMED_UNIT(*)
SI_UNIT(.MILLI.,.METRE.)
);
#559=(
LENGTH_UNIT()
NAMED_UNIT(*)
SI_UNIT($,.METRE.)
);
#560=LENGTH_MEASURE_WITH_UNIT(LENGTH_MEASURE(25.4),#558);
#561=(
NAMED_UNIT(*)
PLANE_ANGLE_UNIT()
SI_UNIT($,.RADIAN.)
);
#562=(
NAMED_UNIT(*)
SI_UNIT($,.STERADIAN.)
SOLID_ANGLE_UNIT()
);
#563=SHAPE_DEFINITION_REPRESENTATION(#564,#565);
#564=PRODUCT_DEFINITION_SHAPE('',$,#567);
#565=SHAPE_REPRESENTATION('',(#352),#554);
#566=PRODUCT_DEFINITION_CONTEXT('part definition',#571,'design');
#567=PRODUCT_DEFINITION('Dual Rocker Switch','Dual Rocker Switch v2',#568,
#566);
#568=PRODUCT_DEFINITION_FORMATION('',$,#573);
#569=PRODUCT_RELATED_PRODUCT_CATEGORY('Dual Rocker Switch v2',
'Dual Rocker Switch v2',(#573));
#570=APPLICATION_PROTOCOL_DEFINITION('international standard',
'automotive_design',2009,#571);
#571=APPLICATION_CONTEXT(
'Core Data for Automotive Mechanical Design Process');
#572=PRODUCT_CONTEXT('part definition',#571,'mechanical');
#573=PRODUCT('Dual Rocker Switch','Dual Rocker Switch v2',$,(#572));
#574=PRESENTATION_STYLE_ASSIGNMENT((#577));
#575=PRESENTATION_STYLE_ASSIGNMENT((#578));
#576=PRESENTATION_STYLE_ASSIGNMENT((#579));
#577=SURFACE_STYLE_USAGE(.BOTH.,#580);
#578=SURFACE_STYLE_USAGE(.BOTH.,#581);
#579=SURFACE_STYLE_USAGE(.BOTH.,#582);
#580=SURFACE_SIDE_STYLE('',(#583));
#581=SURFACE_SIDE_STYLE('',(#584));
#582=SURFACE_SIDE_STYLE('',(#585));
#583=SURFACE_STYLE_FILL_AREA(#586);
#584=SURFACE_STYLE_FILL_AREA(#587);
#585=SURFACE_STYLE_FILL_AREA(#588);
#586=FILL_AREA_STYLE('ABS (White)',(#589));
#587=FILL_AREA_STYLE('ABS (White) (1)',(#590));
#588=FILL_AREA_STYLE('ABS (White) (2)',(#591));
#589=FILL_AREA_STYLE_COLOUR('ABS (White)',#592);
#590=FILL_AREA_STYLE_COLOUR('ABS (White) (1)',#593);
#591=FILL_AREA_STYLE_COLOUR('ABS (White) (2)',#594);
#592=COLOUR_RGB('ABS (White)',0.964705882352941,0.964705882352941,0.952941176470588);
#593=COLOUR_RGB('ABS (White) (1)',0.,0.,0.);
#594=COLOUR_RGB('ABS (White) (2)',1.,0.,0.);
ENDSEC;
END-ISO-10303-21;
