ISO-10303-21;
HEADER;
/* Generated by software containing ST-Developer
 * from STEP Tools, Inc. (www.steptools.com) 
 */

FILE_DESCRIPTION(
/* description */ (''),
/* implementation_level */ '2;1');

FILE_NAME(
/* name */ 
'C:\\Users\\Trevor\\Desktop\\Fusion360Export\\Electronic Models\\Self-
retaining (two-way) Electromagnet DC 12V Push-pull Solenoid_v3.step',
/* time_stamp */ '2021-12-11T14:12:41-07:00',
/* author */ (''),
/* organization */ (''),
/* preprocessor_version */ 'ST-DEVELOPER v18.1',
/* originating_system */ 'Autodesk Translation Framework v10.10.0.1391',

/* authorisation */ '');

FILE_SCHEMA (('AUTOMOTIVE_DESIGN { 1 0 10303 214 3 1 1 }'));
ENDSEC;

DATA;
#10=MECHANICAL_DESIGN_GEOMETRIC_PRESENTATION_REPRESENTATION('',(#23,#24,
#25,#26,#27),#410);
#11=ITEM_DEFINED_TRANSFORMATION($,$,#248,#272);
#12=ITEM_DEFINED_TRANSFORMATION($,$,#258,#273);
#13=(
REPRESENTATION_RELATIONSHIP($,$,#424,#423)
REPRESENTATION_RELATIONSHIP_WITH_TRANSFORMATION(#11)
SHAPE_REPRESENTATION_RELATIONSHIP()
);
#14=(
REPRESENTATION_RELATIONSHIP($,$,#425,#423)
REPRESENTATION_RELATIONSHIP_WITH_TRANSFORMATION(#12)
SHAPE_REPRESENTATION_RELATIONSHIP()
);
#15=CONTEXT_DEPENDENT_SHAPE_REPRESENTATION(#13,#421);
#16=CONTEXT_DEPENDENT_SHAPE_REPRESENTATION(#14,#422);
#17=NEXT_ASSEMBLY_USAGE_OCCURRENCE('Body:1','Body:1','Body:1',#427,#428,
'Body:1');
#18=NEXT_ASSEMBLY_USAGE_OCCURRENCE('Rod:1','Rod:1','Rod:1',#427,#429,
'Rod:1');
#19=SHAPE_REPRESENTATION_RELATIONSHIP('SRR','None',#424,#21);
#20=SHAPE_REPRESENTATION_RELATIONSHIP('SRR','None',#425,#22);
#21=ADVANCED_BREP_SHAPE_REPRESENTATION('',(#28),#408);
#22=ADVANCED_BREP_SHAPE_REPRESENTATION('',(#29),#409);
#23=STYLED_ITEM('',(#443),#28);
#24=STYLED_ITEM('',(#444),#215);
#25=STYLED_ITEM('',(#444),#216);
#26=STYLED_ITEM('',(#444),#221);
#27=STYLED_ITEM('',(#443),#29);
#28=MANIFOLD_SOLID_BREP('Body1',#222);
#29=MANIFOLD_SOLID_BREP('Body1',#223);
#30=CYLINDRICAL_SURFACE('',#251,1.1);
#31=CYLINDRICAL_SURFACE('',#259,2.25);
#32=CYLINDRICAL_SURFACE('',#264,2.5);
#33=CYLINDRICAL_SURFACE('',#270,1.);
#34=FACE_BOUND('',#61,.T.);
#35=FACE_BOUND('',#68,.T.);
#36=FACE_BOUND('',#71,.T.);
#37=FACE_BOUND('',#74,.T.);
#38=CIRCLE('',#250,1.1);
#39=CIRCLE('',#252,1.1);
#40=CIRCLE('',#260,2.25);
#41=CIRCLE('',#261,2.25);
#42=CIRCLE('',#263,1.);
#43=CIRCLE('',#265,2.5);
#44=CIRCLE('',#266,2.5);
#45=CIRCLE('',#268,1.);
#46=FACE_OUTER_BOUND('',#60,.T.);
#47=FACE_OUTER_BOUND('',#62,.T.);
#48=FACE_OUTER_BOUND('',#63,.T.);
#49=FACE_OUTER_BOUND('',#64,.T.);
#50=FACE_OUTER_BOUND('',#65,.T.);
#51=FACE_OUTER_BOUND('',#66,.T.);
#52=FACE_OUTER_BOUND('',#67,.T.);
#53=FACE_OUTER_BOUND('',#69,.T.);
#54=FACE_OUTER_BOUND('',#70,.T.);
#55=FACE_OUTER_BOUND('',#72,.T.);
#56=FACE_OUTER_BOUND('',#73,.T.);
#57=FACE_OUTER_BOUND('',#75,.T.);
#58=FACE_OUTER_BOUND('',#76,.T.);
#59=FACE_OUTER_BOUND('',#77,.T.);
#60=EDGE_LOOP('',(#150,#151,#152,#153));
#61=EDGE_LOOP('',(#154));
#62=EDGE_LOOP('',(#155,#156,#157,#158));
#63=EDGE_LOOP('',(#159,#160,#161,#162));
#64=EDGE_LOOP('',(#163,#164,#165,#166));
#65=EDGE_LOOP('',(#167,#168,#169,#170));
#66=EDGE_LOOP('',(#171,#172,#173,#174));
#67=EDGE_LOOP('',(#175,#176,#177,#178));
#68=EDGE_LOOP('',(#179));
#69=EDGE_LOOP('',(#180,#181,#182,#183));
#70=EDGE_LOOP('',(#184));
#71=EDGE_LOOP('',(#185));
#72=EDGE_LOOP('',(#186,#187,#188,#189));
#73=EDGE_LOOP('',(#190));
#74=EDGE_LOOP('',(#191));
#75=EDGE_LOOP('',(#192));
#76=EDGE_LOOP('',(#193,#194,#195,#196));
#77=EDGE_LOOP('',(#197));
#78=LINE('',#349,#94);
#79=LINE('',#351,#95);
#80=LINE('',#353,#96);
#81=LINE('',#354,#97);
#82=LINE('',#360,#98);
#83=LINE('',#363,#99);
#84=LINE('',#365,#100);
#85=LINE('',#366,#101);
#86=LINE('',#369,#102);
#87=LINE('',#370,#103);
#88=LINE('',#373,#104);
#89=LINE('',#374,#105);
#90=LINE('',#376,#106);
#91=LINE('',#383,#107);
#92=LINE('',#392,#108);
#93=LINE('',#399,#109);
#94=VECTOR('',#280,10.);
#95=VECTOR('',#281,10.);
#96=VECTOR('',#282,10.);
#97=VECTOR('',#283,10.);
#98=VECTOR('',#290,1.1);
#99=VECTOR('',#293,10.);
#100=VECTOR('',#294,10.);
#101=VECTOR('',#295,10.);
#102=VECTOR('',#298,10.);
#103=VECTOR('',#299,10.);
#104=VECTOR('',#302,10.);
#105=VECTOR('',#303,10.);
#106=VECTOR('',#306,10.);
#107=VECTOR('',#315,2.25);
#108=VECTOR('',#326,2.5);
#109=VECTOR('',#337,1.);
#110=VERTEX_POINT('',#347);
#111=VERTEX_POINT('',#348);
#112=VERTEX_POINT('',#350);
#113=VERTEX_POINT('',#352);
#114=VERTEX_POINT('',#355);
#115=VERTEX_POINT('',#358);
#116=VERTEX_POINT('',#362);
#117=VERTEX_POINT('',#364);
#118=VERTEX_POINT('',#368);
#119=VERTEX_POINT('',#372);
#120=VERTEX_POINT('',#380);
#121=VERTEX_POINT('',#382);
#122=VERTEX_POINT('',#386);
#123=VERTEX_POINT('',#389);
#124=VERTEX_POINT('',#391);
#125=VERTEX_POINT('',#395);
#126=EDGE_CURVE('',#110,#111,#78,.T.);
#127=EDGE_CURVE('',#111,#112,#79,.T.);
#128=EDGE_CURVE('',#112,#113,#80,.T.);
#129=EDGE_CURVE('',#113,#110,#81,.T.);
#130=EDGE_CURVE('',#114,#114,#38,.T.);
#131=EDGE_CURVE('',#115,#115,#39,.T.);
#132=EDGE_CURVE('',#115,#114,#82,.T.);
#133=EDGE_CURVE('',#116,#111,#83,.T.);
#134=EDGE_CURVE('',#117,#116,#84,.T.);
#135=EDGE_CURVE('',#112,#117,#85,.T.);
#136=EDGE_CURVE('',#118,#117,#86,.T.);
#137=EDGE_CURVE('',#113,#118,#87,.T.);
#138=EDGE_CURVE('',#119,#118,#88,.T.);
#139=EDGE_CURVE('',#110,#119,#89,.T.);
#140=EDGE_CURVE('',#116,#119,#90,.T.);
#141=EDGE_CURVE('',#120,#120,#40,.T.);
#142=EDGE_CURVE('',#120,#121,#91,.T.);
#143=EDGE_CURVE('',#121,#121,#41,.T.);
#144=EDGE_CURVE('',#122,#122,#42,.T.);
#145=EDGE_CURVE('',#123,#123,#43,.T.);
#146=EDGE_CURVE('',#123,#124,#92,.T.);
#147=EDGE_CURVE('',#124,#124,#44,.T.);
#148=EDGE_CURVE('',#125,#125,#45,.T.);
#149=EDGE_CURVE('',#122,#125,#93,.T.);
#150=ORIENTED_EDGE('',*,*,#126,.T.);
#151=ORIENTED_EDGE('',*,*,#127,.T.);
#152=ORIENTED_EDGE('',*,*,#128,.T.);
#153=ORIENTED_EDGE('',*,*,#129,.T.);
#154=ORIENTED_EDGE('',*,*,#130,.T.);
#155=ORIENTED_EDGE('',*,*,#131,.F.);
#156=ORIENTED_EDGE('',*,*,#132,.T.);
#157=ORIENTED_EDGE('',*,*,#130,.F.);
#158=ORIENTED_EDGE('',*,*,#132,.F.);
#159=ORIENTED_EDGE('',*,*,#133,.F.);
#160=ORIENTED_EDGE('',*,*,#134,.F.);
#161=ORIENTED_EDGE('',*,*,#135,.F.);
#162=ORIENTED_EDGE('',*,*,#127,.F.);
#163=ORIENTED_EDGE('',*,*,#135,.T.);
#164=ORIENTED_EDGE('',*,*,#136,.F.);
#165=ORIENTED_EDGE('',*,*,#137,.F.);
#166=ORIENTED_EDGE('',*,*,#128,.F.);
#167=ORIENTED_EDGE('',*,*,#137,.T.);
#168=ORIENTED_EDGE('',*,*,#138,.F.);
#169=ORIENTED_EDGE('',*,*,#139,.F.);
#170=ORIENTED_EDGE('',*,*,#129,.F.);
#171=ORIENTED_EDGE('',*,*,#139,.T.);
#172=ORIENTED_EDGE('',*,*,#140,.F.);
#173=ORIENTED_EDGE('',*,*,#133,.T.);
#174=ORIENTED_EDGE('',*,*,#126,.F.);
#175=ORIENTED_EDGE('',*,*,#140,.T.);
#176=ORIENTED_EDGE('',*,*,#138,.T.);
#177=ORIENTED_EDGE('',*,*,#136,.T.);
#178=ORIENTED_EDGE('',*,*,#134,.T.);
#179=ORIENTED_EDGE('',*,*,#131,.T.);
#180=ORIENTED_EDGE('',*,*,#141,.F.);
#181=ORIENTED_EDGE('',*,*,#142,.T.);
#182=ORIENTED_EDGE('',*,*,#143,.F.);
#183=ORIENTED_EDGE('',*,*,#142,.F.);
#184=ORIENTED_EDGE('',*,*,#141,.T.);
#185=ORIENTED_EDGE('',*,*,#144,.F.);
#186=ORIENTED_EDGE('',*,*,#145,.F.);
#187=ORIENTED_EDGE('',*,*,#146,.T.);
#188=ORIENTED_EDGE('',*,*,#147,.F.);
#189=ORIENTED_EDGE('',*,*,#146,.F.);
#190=ORIENTED_EDGE('',*,*,#145,.T.);
#191=ORIENTED_EDGE('',*,*,#148,.F.);
#192=ORIENTED_EDGE('',*,*,#147,.T.);
#193=ORIENTED_EDGE('',*,*,#144,.T.);
#194=ORIENTED_EDGE('',*,*,#149,.T.);
#195=ORIENTED_EDGE('',*,*,#148,.T.);
#196=ORIENTED_EDGE('',*,*,#149,.F.);
#197=ORIENTED_EDGE('',*,*,#143,.T.);
#198=PLANE('',#249);
#199=PLANE('',#253);
#200=PLANE('',#254);
#201=PLANE('',#255);
#202=PLANE('',#256);
#203=PLANE('',#257);
#204=PLANE('',#262);
#205=PLANE('',#267);
#206=PLANE('',#269);
#207=PLANE('',#271);
#208=ADVANCED_FACE('',(#46,#34),#198,.F.);
#209=ADVANCED_FACE('',(#47),#30,.F.);
#210=ADVANCED_FACE('',(#48),#199,.T.);
#211=ADVANCED_FACE('',(#49),#200,.T.);
#212=ADVANCED_FACE('',(#50),#201,.T.);
#213=ADVANCED_FACE('',(#51),#202,.T.);
#214=ADVANCED_FACE('',(#52,#35),#203,.T.);
#215=ADVANCED_FACE('',(#53),#31,.T.);
#216=ADVANCED_FACE('',(#54,#36),#204,.F.);
#217=ADVANCED_FACE('',(#55),#32,.T.);
#218=ADVANCED_FACE('',(#56,#37),#205,.F.);
#219=ADVANCED_FACE('',(#57),#206,.T.);
#220=ADVANCED_FACE('',(#58),#33,.T.);
#221=ADVANCED_FACE('',(#59),#207,.F.);
#222=CLOSED_SHELL('',(#208,#209,#210,#211,#212,#213,#214));
#223=CLOSED_SHELL('',(#215,#216,#217,#218,#219,#220,#221));
#224=DERIVED_UNIT_ELEMENT(#228,1.);
#225=DERIVED_UNIT_ELEMENT(#412,-3.);
#226=DERIVED_UNIT_ELEMENT(#228,1.);
#227=DERIVED_UNIT_ELEMENT(#412,-3.);
#228=(
MASS_UNIT()
NAMED_UNIT(*)
SI_UNIT(.KILO.,.GRAM.)
);
#229=DERIVED_UNIT((#224,#225));
#230=DERIVED_UNIT((#226,#227));
#231=MEASURE_REPRESENTATION_ITEM('density measure',
POSITIVE_RATIO_MEASURE(1060.),#229);
#232=MEASURE_REPRESENTATION_ITEM('density measure',
POSITIVE_RATIO_MEASURE(1060.),#230);
#233=PROPERTY_DEFINITION_REPRESENTATION(#243,#237);
#234=PROPERTY_DEFINITION_REPRESENTATION(#244,#238);
#235=PROPERTY_DEFINITION_REPRESENTATION(#245,#239);
#236=PROPERTY_DEFINITION_REPRESENTATION(#246,#240);
#237=REPRESENTATION('material name',(#241),#408);
#238=REPRESENTATION('density',(#231),#408);
#239=REPRESENTATION('material name',(#242),#409);
#240=REPRESENTATION('density',(#232),#409);
#241=DESCRIPTIVE_REPRESENTATION_ITEM('ABS Plastic','ABS Plastic');
#242=DESCRIPTIVE_REPRESENTATION_ITEM('ABS Plastic','ABS Plastic');
#243=PROPERTY_DEFINITION('material property','material name',#428);
#244=PROPERTY_DEFINITION('material property','density of part',#428);
#245=PROPERTY_DEFINITION('material property','material name',#429);
#246=PROPERTY_DEFINITION('material property','density of part',#429);
#247=AXIS2_PLACEMENT_3D('placement',#344,#274,#275);
#248=AXIS2_PLACEMENT_3D('placement',#345,#276,#277);
#249=AXIS2_PLACEMENT_3D('',#346,#278,#279);
#250=AXIS2_PLACEMENT_3D('',#356,#284,#285);
#251=AXIS2_PLACEMENT_3D('',#357,#286,#287);
#252=AXIS2_PLACEMENT_3D('',#359,#288,#289);
#253=AXIS2_PLACEMENT_3D('',#361,#291,#292);
#254=AXIS2_PLACEMENT_3D('',#367,#296,#297);
#255=AXIS2_PLACEMENT_3D('',#371,#300,#301);
#256=AXIS2_PLACEMENT_3D('',#375,#304,#305);
#257=AXIS2_PLACEMENT_3D('',#377,#307,#308);
#258=AXIS2_PLACEMENT_3D('placement',#378,#309,#310);
#259=AXIS2_PLACEMENT_3D('',#379,#311,#312);
#260=AXIS2_PLACEMENT_3D('',#381,#313,#314);
#261=AXIS2_PLACEMENT_3D('',#384,#316,#317);
#262=AXIS2_PLACEMENT_3D('',#385,#318,#319);
#263=AXIS2_PLACEMENT_3D('',#387,#320,#321);
#264=AXIS2_PLACEMENT_3D('',#388,#322,#323);
#265=AXIS2_PLACEMENT_3D('',#390,#324,#325);
#266=AXIS2_PLACEMENT_3D('',#393,#327,#328);
#267=AXIS2_PLACEMENT_3D('',#394,#329,#330);
#268=AXIS2_PLACEMENT_3D('',#396,#331,#332);
#269=AXIS2_PLACEMENT_3D('',#397,#333,#334);
#270=AXIS2_PLACEMENT_3D('',#398,#335,#336);
#271=AXIS2_PLACEMENT_3D('',#400,#338,#339);
#272=AXIS2_PLACEMENT_3D('',#401,#340,#341);
#273=AXIS2_PLACEMENT_3D('',#402,#342,#343);
#274=DIRECTION('axis',(0.,0.,1.));
#275=DIRECTION('refdir',(1.,0.,0.));
#276=DIRECTION('axis',(0.,0.,1.));
#277=DIRECTION('refdir',(1.,0.,0.));
#278=DIRECTION('center_axis',(0.,1.,0.));
#279=DIRECTION('ref_axis',(1.,0.,0.));
#280=DIRECTION('',(1.,0.,0.));
#281=DIRECTION('',(0.,0.,1.));
#282=DIRECTION('',(-1.,0.,0.));
#283=DIRECTION('',(0.,0.,-1.));
#284=DIRECTION('center_axis',(0.,1.,0.));
#285=DIRECTION('ref_axis',(1.,0.,0.));
#286=DIRECTION('center_axis',(0.,1.,0.));
#287=DIRECTION('ref_axis',(1.,0.,0.));
#288=DIRECTION('center_axis',(0.,-1.,0.));
#289=DIRECTION('ref_axis',(1.,0.,0.));
#290=DIRECTION('',(0.,-1.,0.));
#291=DIRECTION('center_axis',(1.,0.,0.));
#292=DIRECTION('ref_axis',(0.,0.,-1.));
#293=DIRECTION('',(0.,-1.,0.));
#294=DIRECTION('',(0.,0.,-1.));
#295=DIRECTION('',(0.,1.,0.));
#296=DIRECTION('center_axis',(0.,0.,1.));
#297=DIRECTION('ref_axis',(1.,0.,0.));
#298=DIRECTION('',(1.,0.,0.));
#299=DIRECTION('',(0.,1.,0.));
#300=DIRECTION('center_axis',(-1.,0.,0.));
#301=DIRECTION('ref_axis',(0.,0.,1.));
#302=DIRECTION('',(0.,0.,1.));
#303=DIRECTION('',(0.,1.,0.));
#304=DIRECTION('center_axis',(0.,0.,-1.));
#305=DIRECTION('ref_axis',(-1.,0.,0.));
#306=DIRECTION('',(-1.,0.,0.));
#307=DIRECTION('center_axis',(0.,1.,0.));
#308=DIRECTION('ref_axis',(1.,0.,0.));
#309=DIRECTION('axis',(0.,0.,1.));
#310=DIRECTION('refdir',(1.,0.,0.));
#311=DIRECTION('center_axis',(0.,-1.,0.));
#312=DIRECTION('ref_axis',(-1.,0.,0.));
#313=DIRECTION('center_axis',(0.,-1.,0.));
#314=DIRECTION('ref_axis',(-1.,0.,0.));
#315=DIRECTION('',(0.,1.,0.));
#316=DIRECTION('center_axis',(0.,1.,0.));
#317=DIRECTION('ref_axis',(-1.,0.,0.));
#318=DIRECTION('center_axis',(0.,1.,0.));
#319=DIRECTION('ref_axis',(-1.,0.,0.));
#320=DIRECTION('center_axis',(0.,-1.,0.));
#321=DIRECTION('ref_axis',(1.,0.,0.));
#322=DIRECTION('center_axis',(0.,1.,0.));
#323=DIRECTION('ref_axis',(1.,0.,0.));
#324=DIRECTION('center_axis',(0.,1.,0.));
#325=DIRECTION('ref_axis',(1.,0.,0.));
#326=DIRECTION('',(0.,-1.,0.));
#327=DIRECTION('center_axis',(0.,-1.,0.));
#328=DIRECTION('ref_axis',(1.,0.,0.));
#329=DIRECTION('center_axis',(0.,-1.,0.));
#330=DIRECTION('ref_axis',(1.,0.,0.));
#331=DIRECTION('center_axis',(0.,1.,0.));
#332=DIRECTION('ref_axis',(1.,0.,0.));
#333=DIRECTION('center_axis',(0.,-1.,0.));
#334=DIRECTION('ref_axis',(0.,0.,-1.));
#335=DIRECTION('center_axis',(0.,1.,0.));
#336=DIRECTION('ref_axis',(1.,0.,0.));
#337=DIRECTION('',(0.,-1.,0.));
#338=DIRECTION('center_axis',(0.,-1.,0.));
#339=DIRECTION('ref_axis',(0.,0.,-1.));
#340=DIRECTION('',(0.,0.,1.));
#341=DIRECTION('',(1.,0.,0.));
#342=DIRECTION('',(0.,0.,1.));
#343=DIRECTION('',(1.,0.,0.));
#344=CARTESIAN_POINT('',(0.,0.,0.));
#345=CARTESIAN_POINT('',(0.,0.,0.));
#346=CARTESIAN_POINT('Origin',(-1.11022302462516E-15,-11.425,0.));
#347=CARTESIAN_POINT('',(-7.45,-11.425,-8.575));
#348=CARTESIAN_POINT('',(7.45,-11.425,-8.575));
#349=CARTESIAN_POINT('',(-7.45,-11.425,-8.575));
#350=CARTESIAN_POINT('',(7.45,-11.425,8.575));
#351=CARTESIAN_POINT('',(7.45,-11.425,-8.575));
#352=CARTESIAN_POINT('',(-7.45,-11.425,8.575));
#353=CARTESIAN_POINT('',(7.45,-11.425,8.575));
#354=CARTESIAN_POINT('',(-7.45,-11.425,8.575));
#355=CARTESIAN_POINT('',(-1.1,-11.425,1.34711147906209E-16));
#356=CARTESIAN_POINT('Origin',(0.,-11.425,0.));
#357=CARTESIAN_POINT('Origin',(0.,0.,0.));
#358=CARTESIAN_POINT('',(-1.1,11.425,1.34711147906209E-16));
#359=CARTESIAN_POINT('Origin',(0.,11.425,0.));
#360=CARTESIAN_POINT('',(-1.1,0.,1.34711147906209E-16));
#361=CARTESIAN_POINT('Origin',(7.45,0.,8.575));
#362=CARTESIAN_POINT('',(7.45,11.425,-8.575));
#363=CARTESIAN_POINT('',(7.45,0.,-8.575));
#364=CARTESIAN_POINT('',(7.45,11.425,8.575));
#365=CARTESIAN_POINT('',(7.45,11.425,-8.575));
#366=CARTESIAN_POINT('',(7.45,0.,8.575));
#367=CARTESIAN_POINT('Origin',(-7.45,0.,8.575));
#368=CARTESIAN_POINT('',(-7.45,11.425,8.575));
#369=CARTESIAN_POINT('',(7.45,11.425,8.575));
#370=CARTESIAN_POINT('',(-7.45,0.,8.575));
#371=CARTESIAN_POINT('Origin',(-7.45,0.,-8.575));
#372=CARTESIAN_POINT('',(-7.45,11.425,-8.575));
#373=CARTESIAN_POINT('',(-7.45,11.425,8.575));
#374=CARTESIAN_POINT('',(-7.45,0.,-8.575));
#375=CARTESIAN_POINT('Origin',(7.45,0.,-8.575));
#376=CARTESIAN_POINT('',(-7.45,11.425,-8.575));
#377=CARTESIAN_POINT('Origin',(-1.11022302462516E-15,11.425,0.));
#378=CARTESIAN_POINT('',(0.,0.,0.));
#379=CARTESIAN_POINT('Origin',(0.,31.275,0.));
#380=CARTESIAN_POINT('',(2.25,16.775,-2.75545529808154E-16));
#381=CARTESIAN_POINT('Origin',(0.,16.775,0.));
#382=CARTESIAN_POINT('',(2.25,31.275,-2.75545529808154E-16));
#383=CARTESIAN_POINT('',(2.25,31.275,2.75545529808154E-16));
#384=CARTESIAN_POINT('Origin',(0.,31.275,0.));
#385=CARTESIAN_POINT('Origin',(0.,16.775,0.));
#386=CARTESIAN_POINT('',(-1.,16.775,1.22464679914735E-16));
#387=CARTESIAN_POINT('Origin',(0.,16.775,0.));
#388=CARTESIAN_POINT('Origin',(0.,-29.925,0.));
#389=CARTESIAN_POINT('',(-2.5,-19.145,-3.06161699786838E-16));
#390=CARTESIAN_POINT('Origin',(0.,-19.145,0.));
#391=CARTESIAN_POINT('',(-2.5,-29.925,-3.06161699786838E-16));
#392=CARTESIAN_POINT('',(-2.5,-29.925,3.06161699786838E-16));
#393=CARTESIAN_POINT('Origin',(0.,-29.925,0.));
#394=CARTESIAN_POINT('Origin',(0.,-19.145,0.));
#395=CARTESIAN_POINT('',(-1.,-19.145,-1.22464679914735E-16));
#396=CARTESIAN_POINT('Origin',(0.,-19.145,0.));
#397=CARTESIAN_POINT('Origin',(0.,-29.925,0.));
#398=CARTESIAN_POINT('Origin',(0.,-11.425,0.));
#399=CARTESIAN_POINT('',(-1.,-11.425,1.22464679914735E-16));
#400=CARTESIAN_POINT('Origin',(0.,31.275,0.));
#401=CARTESIAN_POINT('',(0.,0.,0.));
#402=CARTESIAN_POINT('',(0.,0.,0.));
#403=UNCERTAINTY_MEASURE_WITH_UNIT(LENGTH_MEASURE(0.01),#411,
'DISTANCE_ACCURACY_VALUE',
'Maximum model space distance between geometric entities at asserted c
onnectivities');
#404=UNCERTAINTY_MEASURE_WITH_UNIT(LENGTH_MEASURE(0.01),#411,
'DISTANCE_ACCURACY_VALUE',
'Maximum model space distance between geometric entities at asserted c
onnectivities');
#405=UNCERTAINTY_MEASURE_WITH_UNIT(LENGTH_MEASURE(0.01),#411,
'DISTANCE_ACCURACY_VALUE',
'Maximum model space distance between geometric entities at asserted c
onnectivities');
#406=UNCERTAINTY_MEASURE_WITH_UNIT(LENGTH_MEASURE(0.01),#411,
'DISTANCE_ACCURACY_VALUE',
'Maximum model space distance between geometric entities at asserted c
onnectivities');
#407=(
GEOMETRIC_REPRESENTATION_CONTEXT(3)
GLOBAL_UNCERTAINTY_ASSIGNED_CONTEXT((#403))
GLOBAL_UNIT_ASSIGNED_CONTEXT((#411,#413,#414))
REPRESENTATION_CONTEXT('','3D')
);
#408=(
GEOMETRIC_REPRESENTATION_CONTEXT(3)
GLOBAL_UNCERTAINTY_ASSIGNED_CONTEXT((#404))
GLOBAL_UNIT_ASSIGNED_CONTEXT((#411,#413,#414))
REPRESENTATION_CONTEXT('','3D')
);
#409=(
GEOMETRIC_REPRESENTATION_CONTEXT(3)
GLOBAL_UNCERTAINTY_ASSIGNED_CONTEXT((#405))
GLOBAL_UNIT_ASSIGNED_CONTEXT((#411,#413,#414))
REPRESENTATION_CONTEXT('','3D')
);
#410=(
GEOMETRIC_REPRESENTATION_CONTEXT(3)
GLOBAL_UNCERTAINTY_ASSIGNED_CONTEXT((#406))
GLOBAL_UNIT_ASSIGNED_CONTEXT((#411,#413,#414))
REPRESENTATION_CONTEXT('','3D')
);
#411=(
LENGTH_UNIT()
NAMED_UNIT(*)
SI_UNIT(.MILLI.,.METRE.)
);
#412=(
LENGTH_UNIT()
NAMED_UNIT(*)
SI_UNIT($,.METRE.)
);
#413=(
NAMED_UNIT(*)
PLANE_ANGLE_UNIT()
SI_UNIT($,.RADIAN.)
);
#414=(
NAMED_UNIT(*)
SI_UNIT($,.STERADIAN.)
SOLID_ANGLE_UNIT()
);
#415=SHAPE_DEFINITION_REPRESENTATION(#418,#423);
#416=SHAPE_DEFINITION_REPRESENTATION(#419,#424);
#417=SHAPE_DEFINITION_REPRESENTATION(#420,#425);
#418=PRODUCT_DEFINITION_SHAPE('',$,#427);
#419=PRODUCT_DEFINITION_SHAPE('',$,#428);
#420=PRODUCT_DEFINITION_SHAPE('',$,#429);
#421=PRODUCT_DEFINITION_SHAPE($,$,#17);
#422=PRODUCT_DEFINITION_SHAPE($,$,#18);
#423=SHAPE_REPRESENTATION('',(#247,#272,#273),#407);
#424=SHAPE_REPRESENTATION('',(#248),#408);
#425=SHAPE_REPRESENTATION('',(#258),#409);
#426=PRODUCT_DEFINITION_CONTEXT('part definition',#437,'design');
#427=PRODUCT_DEFINITION(
'Self-retaining (two-way) Electromagnet DC 12V Push-pull Solenoid',
'Self-retaining (two-way) Electromagnet DC 12V Push-pull Solenoid v3',#430,
#426);
#428=PRODUCT_DEFINITION('Body','Body',#431,#426);
#429=PRODUCT_DEFINITION('Rod','Rod',#432,#426);
#430=PRODUCT_DEFINITION_FORMATION('',$,#439);
#431=PRODUCT_DEFINITION_FORMATION('',$,#440);
#432=PRODUCT_DEFINITION_FORMATION('',$,#441);
#433=PRODUCT_RELATED_PRODUCT_CATEGORY(
'Self-retaining (two-way) Electromagnet DC 12V Push-pull Solenoid v3',
'Self-retaining (two-way) Electromagnet DC 12V Push-pull Solenoid v3',(#439));
#434=PRODUCT_RELATED_PRODUCT_CATEGORY('Body','Body',(#440));
#435=PRODUCT_RELATED_PRODUCT_CATEGORY('Rod','Rod',(#441));
#436=APPLICATION_PROTOCOL_DEFINITION('international standard',
'automotive_design',2009,#437);
#437=APPLICATION_CONTEXT(
'Core Data for Automotive Mechanical Design Process');
#438=PRODUCT_CONTEXT('part definition',#437,'mechanical');
#439=PRODUCT(
'Self-retaining (two-way) Electromagnet DC 12V Push-pull Solenoid',
'Self-retaining (two-way) Electromagnet DC 12V Push-pull Solenoid v3',$,
(#438));
#440=PRODUCT('Body','Body',$,(#438));
#441=PRODUCT('Rod','Rod',$,(#438));
#442=PRESENTATION_STYLE_ASSIGNMENT((#445));
#443=PRESENTATION_STYLE_ASSIGNMENT((#446));
#444=PRESENTATION_STYLE_ASSIGNMENT((#447));
#445=SURFACE_STYLE_USAGE(.BOTH.,#448);
#446=SURFACE_STYLE_USAGE(.BOTH.,#449);
#447=SURFACE_STYLE_USAGE(.BOTH.,#450);
#448=SURFACE_SIDE_STYLE('',(#451));
#449=SURFACE_SIDE_STYLE('',(#452));
#450=SURFACE_SIDE_STYLE('',(#453));
#451=SURFACE_STYLE_FILL_AREA(#454);
#452=SURFACE_STYLE_FILL_AREA(#455);
#453=SURFACE_STYLE_FILL_AREA(#456);
#454=FILL_AREA_STYLE('ABS (White)',(#457));
#455=FILL_AREA_STYLE('Coating - Black Oxide',(#458));
#456=FILL_AREA_STYLE('Silver - Polished',(#459));
#457=FILL_AREA_STYLE_COLOUR('ABS (White)',#460);
#458=FILL_AREA_STYLE_COLOUR('Coating - Black Oxide',#461);
#459=FILL_AREA_STYLE_COLOUR('Silver - Polished',#462);
#460=COLOUR_RGB('ABS (White)',0.964705882352941,0.964705882352941,0.952941176470588);
#461=COLOUR_RGB('Coating - Black Oxide',0.172549019607843,0.172549019607843,
0.172549019607843);
#462=COLOUR_RGB('Silver - Polished',0.984313725490196,0.980392156862745,
0.96078431372549);
ENDSEC;
END-ISO-10303-21;
