ISO-10303-21;
HEADER;
/* Generated by software containing ST-Developer
 * from STEP Tools, Inc. (www.steptools.com) 
 */

FILE_DESCRIPTION(
/* description */ (''),
/* implementation_level */ '2;1');

FILE_NAME(
/* name */ 
'C:\\Users\\Trevor\\Desktop\\Fusion360Export\\Cessna 172 Project Versi
on 3\\Section 1\\1-5-000 PC_v2.step',
/* time_stamp */ '2021-12-11T14:17:45-07:00',
/* author */ (''),
/* organization */ (''),
/* preprocessor_version */ 'ST-DEVELOPER v18.1',
/* originating_system */ 'Autodesk Translation Framework v10.10.0.1391',

/* authorisation */ '');

FILE_SCHEMA (('AUTOMOTIVE_DESIGN { 1 0 10303 214 3 1 1 }'));
ENDSEC;

DATA;
#10=MECHANICAL_DESIGN_GEOMETRIC_PRESENTATION_REPRESENTATION('',(#17),#197);
#11=ITEM_DEFINED_TRANSFORMATION($,$,#125,#132);
#12=(
REPRESENTATION_RELATIONSHIP($,$,#211,#210)
REPRESENTATION_RELATIONSHIP_WITH_TRANSFORMATION(#11)
SHAPE_REPRESENTATION_RELATIONSHIP()
);
#13=CONTEXT_DEPENDENT_SHAPE_REPRESENTATION(#12,#209);
#14=NEXT_ASSEMBLY_USAGE_OCCURRENCE('PC:1','PC:1','PC:1',#213,#214,
'PC:1');
#15=SHAPE_REPRESENTATION_RELATIONSHIP('SRR','None',#211,#16);
#16=ADVANCED_BREP_SHAPE_REPRESENTATION('',(#18),#196);
#17=STYLED_ITEM('',(#225),#18);
#18=MANIFOLD_SOLID_BREP('Body1',#111);
#19=FACE_OUTER_BOUND('',#25,.T.);
#20=FACE_OUTER_BOUND('',#26,.T.);
#21=FACE_OUTER_BOUND('',#27,.T.);
#22=FACE_OUTER_BOUND('',#28,.T.);
#23=FACE_OUTER_BOUND('',#29,.T.);
#24=FACE_OUTER_BOUND('',#30,.T.);
#25=EDGE_LOOP('',(#75,#76,#77,#78));
#26=EDGE_LOOP('',(#79,#80,#81,#82));
#27=EDGE_LOOP('',(#83,#84,#85,#86));
#28=EDGE_LOOP('',(#87,#88,#89,#90));
#29=EDGE_LOOP('',(#91,#92,#93,#94));
#30=EDGE_LOOP('',(#95,#96,#97,#98));
#31=LINE('',#168,#43);
#32=LINE('',#170,#44);
#33=LINE('',#172,#45);
#34=LINE('',#173,#46);
#35=LINE('',#176,#47);
#36=LINE('',#178,#48);
#37=LINE('',#179,#49);
#38=LINE('',#182,#50);
#39=LINE('',#184,#51);
#40=LINE('',#185,#52);
#41=LINE('',#187,#53);
#42=LINE('',#188,#54);
#43=VECTOR('',#139,0.393700787401575);
#44=VECTOR('',#140,0.393700787401575);
#45=VECTOR('',#141,0.393700787401575);
#46=VECTOR('',#142,0.393700787401575);
#47=VECTOR('',#145,0.393700787401575);
#48=VECTOR('',#146,0.393700787401575);
#49=VECTOR('',#147,0.393700787401575);
#50=VECTOR('',#150,0.393700787401575);
#51=VECTOR('',#151,0.393700787401575);
#52=VECTOR('',#152,0.393700787401575);
#53=VECTOR('',#155,0.393700787401575);
#54=VECTOR('',#156,0.393700787401575);
#55=VERTEX_POINT('',#166);
#56=VERTEX_POINT('',#167);
#57=VERTEX_POINT('',#169);
#58=VERTEX_POINT('',#171);
#59=VERTEX_POINT('',#175);
#60=VERTEX_POINT('',#177);
#61=VERTEX_POINT('',#181);
#62=VERTEX_POINT('',#183);
#63=EDGE_CURVE('',#55,#56,#31,.T.);
#64=EDGE_CURVE('',#56,#57,#32,.T.);
#65=EDGE_CURVE('',#58,#57,#33,.T.);
#66=EDGE_CURVE('',#55,#58,#34,.T.);
#67=EDGE_CURVE('',#59,#55,#35,.T.);
#68=EDGE_CURVE('',#60,#58,#36,.T.);
#69=EDGE_CURVE('',#59,#60,#37,.T.);
#70=EDGE_CURVE('',#61,#59,#38,.T.);
#71=EDGE_CURVE('',#62,#60,#39,.T.);
#72=EDGE_CURVE('',#61,#62,#40,.T.);
#73=EDGE_CURVE('',#56,#61,#41,.T.);
#74=EDGE_CURVE('',#57,#62,#42,.T.);
#75=ORIENTED_EDGE('',*,*,#63,.T.);
#76=ORIENTED_EDGE('',*,*,#64,.T.);
#77=ORIENTED_EDGE('',*,*,#65,.F.);
#78=ORIENTED_EDGE('',*,*,#66,.F.);
#79=ORIENTED_EDGE('',*,*,#67,.T.);
#80=ORIENTED_EDGE('',*,*,#66,.T.);
#81=ORIENTED_EDGE('',*,*,#68,.F.);
#82=ORIENTED_EDGE('',*,*,#69,.F.);
#83=ORIENTED_EDGE('',*,*,#70,.T.);
#84=ORIENTED_EDGE('',*,*,#69,.T.);
#85=ORIENTED_EDGE('',*,*,#71,.F.);
#86=ORIENTED_EDGE('',*,*,#72,.F.);
#87=ORIENTED_EDGE('',*,*,#73,.T.);
#88=ORIENTED_EDGE('',*,*,#72,.T.);
#89=ORIENTED_EDGE('',*,*,#74,.F.);
#90=ORIENTED_EDGE('',*,*,#64,.F.);
#91=ORIENTED_EDGE('',*,*,#74,.T.);
#92=ORIENTED_EDGE('',*,*,#71,.T.);
#93=ORIENTED_EDGE('',*,*,#68,.T.);
#94=ORIENTED_EDGE('',*,*,#65,.T.);
#95=ORIENTED_EDGE('',*,*,#73,.F.);
#96=ORIENTED_EDGE('',*,*,#63,.F.);
#97=ORIENTED_EDGE('',*,*,#67,.F.);
#98=ORIENTED_EDGE('',*,*,#70,.F.);
#99=PLANE('',#126);
#100=PLANE('',#127);
#101=PLANE('',#128);
#102=PLANE('',#129);
#103=PLANE('',#130);
#104=PLANE('',#131);
#105=ADVANCED_FACE('',(#19),#99,.T.);
#106=ADVANCED_FACE('',(#20),#100,.T.);
#107=ADVANCED_FACE('',(#21),#101,.T.);
#108=ADVANCED_FACE('',(#22),#102,.T.);
#109=ADVANCED_FACE('',(#23),#103,.T.);
#110=ADVANCED_FACE('',(#24),#104,.F.);
#111=CLOSED_SHELL('',(#105,#106,#107,#108,#109,#110));
#112=DERIVED_UNIT_ELEMENT(#114,1.);
#113=DERIVED_UNIT_ELEMENT(#201,-3.);
#114=(
MASS_UNIT()
NAMED_UNIT(*)
SI_UNIT(.KILO.,.GRAM.)
);
#115=DERIVED_UNIT((#112,#113));
#116=MEASURE_REPRESENTATION_ITEM('density measure',
POSITIVE_RATIO_MEASURE(1060.),#115);
#117=PROPERTY_DEFINITION_REPRESENTATION(#122,#119);
#118=PROPERTY_DEFINITION_REPRESENTATION(#123,#120);
#119=REPRESENTATION('material name',(#121),#196);
#120=REPRESENTATION('density',(#116),#196);
#121=DESCRIPTIVE_REPRESENTATION_ITEM('ABS Plastic','ABS Plastic');
#122=PROPERTY_DEFINITION('material property','material name',#214);
#123=PROPERTY_DEFINITION('material property','density of part',#214);
#124=AXIS2_PLACEMENT_3D('placement',#163,#133,#134);
#125=AXIS2_PLACEMENT_3D('placement',#164,#135,#136);
#126=AXIS2_PLACEMENT_3D('',#165,#137,#138);
#127=AXIS2_PLACEMENT_3D('',#174,#143,#144);
#128=AXIS2_PLACEMENT_3D('',#180,#148,#149);
#129=AXIS2_PLACEMENT_3D('',#186,#153,#154);
#130=AXIS2_PLACEMENT_3D('',#189,#157,#158);
#131=AXIS2_PLACEMENT_3D('',#190,#159,#160);
#132=AXIS2_PLACEMENT_3D('',#191,#161,#162);
#133=DIRECTION('axis',(0.,0.,1.));
#134=DIRECTION('refdir',(1.,0.,0.));
#135=DIRECTION('axis',(0.,0.,1.));
#136=DIRECTION('refdir',(1.,0.,0.));
#137=DIRECTION('center_axis',(0.,-1.,0.));
#138=DIRECTION('ref_axis',(1.,0.,0.));
#139=DIRECTION('',(1.,0.,0.));
#140=DIRECTION('',(0.,0.,1.));
#141=DIRECTION('',(1.,0.,0.));
#142=DIRECTION('',(0.,0.,1.));
#143=DIRECTION('center_axis',(-1.,0.,0.));
#144=DIRECTION('ref_axis',(0.,-1.,0.));
#145=DIRECTION('',(0.,-1.,0.));
#146=DIRECTION('',(0.,-1.,0.));
#147=DIRECTION('',(0.,0.,1.));
#148=DIRECTION('center_axis',(0.,1.,0.));
#149=DIRECTION('ref_axis',(-1.,0.,0.));
#150=DIRECTION('',(-1.,0.,0.));
#151=DIRECTION('',(-1.,0.,0.));
#152=DIRECTION('',(0.,0.,1.));
#153=DIRECTION('center_axis',(1.,0.,0.));
#154=DIRECTION('ref_axis',(0.,1.,0.));
#155=DIRECTION('',(0.,1.,0.));
#156=DIRECTION('',(0.,1.,0.));
#157=DIRECTION('center_axis',(0.,0.,1.));
#158=DIRECTION('ref_axis',(1.,0.,0.));
#159=DIRECTION('center_axis',(0.,0.,1.));
#160=DIRECTION('ref_axis',(1.,0.,0.));
#161=DIRECTION('',(0.,0.,1.));
#162=DIRECTION('',(1.,0.,0.));
#163=CARTESIAN_POINT('',(0.,0.,0.));
#164=CARTESIAN_POINT('',(0.,0.,0.));
#165=CARTESIAN_POINT('Origin',(-8.125,-4.25,0.));
#166=CARTESIAN_POINT('',(-8.125,-4.25,0.));
#167=CARTESIAN_POINT('',(8.125,-4.25,0.));
#168=CARTESIAN_POINT('',(-8.125,-4.25,0.));
#169=CARTESIAN_POINT('',(8.125,-4.25,18.25));
#170=CARTESIAN_POINT('',(8.125,-4.25,0.));
#171=CARTESIAN_POINT('',(-8.125,-4.25,18.25));
#172=CARTESIAN_POINT('',(-8.125,-4.25,18.25));
#173=CARTESIAN_POINT('',(-8.125,-4.25,0.));
#174=CARTESIAN_POINT('Origin',(-8.125,4.25,0.));
#175=CARTESIAN_POINT('',(-8.125,4.25,0.));
#176=CARTESIAN_POINT('',(-8.125,4.25,0.));
#177=CARTESIAN_POINT('',(-8.125,4.25,18.25));
#178=CARTESIAN_POINT('',(-8.125,4.25,18.25));
#179=CARTESIAN_POINT('',(-8.125,4.25,0.));
#180=CARTESIAN_POINT('Origin',(8.125,4.25,0.));
#181=CARTESIAN_POINT('',(8.125,4.25,0.));
#182=CARTESIAN_POINT('',(8.125,4.25,0.));
#183=CARTESIAN_POINT('',(8.125,4.25,18.25));
#184=CARTESIAN_POINT('',(8.125,4.25,18.25));
#185=CARTESIAN_POINT('',(8.125,4.25,0.));
#186=CARTESIAN_POINT('Origin',(8.125,-4.25,0.));
#187=CARTESIAN_POINT('',(8.125,-4.25,0.));
#188=CARTESIAN_POINT('',(8.125,-4.25,18.25));
#189=CARTESIAN_POINT('Origin',(0.,0.,18.25));
#190=CARTESIAN_POINT('Origin',(0.,0.,0.));
#191=CARTESIAN_POINT('',(0.,0.,0.));
#192=UNCERTAINTY_MEASURE_WITH_UNIT(LENGTH_MEASURE(0.000393700787401575),
#199,'DISTANCE_ACCURACY_VALUE',
'Maximum model space distance between geometric entities at asserted c
onnectivities');
#193=UNCERTAINTY_MEASURE_WITH_UNIT(LENGTH_MEASURE(0.000393700787401575),
#199,'DISTANCE_ACCURACY_VALUE',
'Maximum model space distance between geometric entities at asserted c
onnectivities');
#194=UNCERTAINTY_MEASURE_WITH_UNIT(LENGTH_MEASURE(0.000393700787401575),
#199,'DISTANCE_ACCURACY_VALUE',
'Maximum model space distance between geometric entities at asserted c
onnectivities');
#195=(
GEOMETRIC_REPRESENTATION_CONTEXT(3)
GLOBAL_UNCERTAINTY_ASSIGNED_CONTEXT((#192))
GLOBAL_UNIT_ASSIGNED_CONTEXT((#199,#203,#204))
REPRESENTATION_CONTEXT('','3D')
);
#196=(
GEOMETRIC_REPRESENTATION_CONTEXT(3)
GLOBAL_UNCERTAINTY_ASSIGNED_CONTEXT((#193))
GLOBAL_UNIT_ASSIGNED_CONTEXT((#199,#203,#204))
REPRESENTATION_CONTEXT('','3D')
);
#197=(
GEOMETRIC_REPRESENTATION_CONTEXT(3)
GLOBAL_UNCERTAINTY_ASSIGNED_CONTEXT((#194))
GLOBAL_UNIT_ASSIGNED_CONTEXT((#199,#203,#204))
REPRESENTATION_CONTEXT('','3D')
);
#198=DIMENSIONAL_EXPONENTS(1.,0.,0.,0.,0.,0.,0.);
#199=(
CONVERSION_BASED_UNIT('inch',#202)
LENGTH_UNIT()
NAMED_UNIT(#198)
);
#200=(
LENGTH_UNIT()
NAMED_UNIT(*)
SI_UNIT(.MILLI.,.METRE.)
);
#201=(
LENGTH_UNIT()
NAMED_UNIT(*)
SI_UNIT($,.METRE.)
);
#202=LENGTH_MEASURE_WITH_UNIT(LENGTH_MEASURE(25.4),#200);
#203=(
NAMED_UNIT(*)
PLANE_ANGLE_UNIT()
SI_UNIT($,.RADIAN.)
);
#204=(
NAMED_UNIT(*)
SI_UNIT($,.STERADIAN.)
SOLID_ANGLE_UNIT()
);
#205=SHAPE_DEFINITION_REPRESENTATION(#207,#210);
#206=SHAPE_DEFINITION_REPRESENTATION(#208,#211);
#207=PRODUCT_DEFINITION_SHAPE('',$,#213);
#208=PRODUCT_DEFINITION_SHAPE('',$,#214);
#209=PRODUCT_DEFINITION_SHAPE($,$,#14);
#210=SHAPE_REPRESENTATION('',(#124,#132),#195);
#211=SHAPE_REPRESENTATION('',(#125),#196);
#212=PRODUCT_DEFINITION_CONTEXT('part definition',#220,'design');
#213=PRODUCT_DEFINITION('1-5-000 PC','1-5-000 PC v2',#215,#212);
#214=PRODUCT_DEFINITION('PC','PC',#216,#212);
#215=PRODUCT_DEFINITION_FORMATION('',$,#222);
#216=PRODUCT_DEFINITION_FORMATION('',$,#223);
#217=PRODUCT_RELATED_PRODUCT_CATEGORY('1-5-000 PC v2','1-5-000 PC v2',(#222));
#218=PRODUCT_RELATED_PRODUCT_CATEGORY('PC','PC',(#223));
#219=APPLICATION_PROTOCOL_DEFINITION('international standard',
'automotive_design',2009,#220);
#220=APPLICATION_CONTEXT(
'Core Data for Automotive Mechanical Design Process');
#221=PRODUCT_CONTEXT('part definition',#220,'mechanical');
#222=PRODUCT('1-5-000 PC','1-5-000 PC v2',$,(#221));
#223=PRODUCT('PC','PC',$,(#221));
#224=PRESENTATION_STYLE_ASSIGNMENT((#226));
#225=PRESENTATION_STYLE_ASSIGNMENT((#227));
#226=SURFACE_STYLE_USAGE(.BOTH.,#228);
#227=SURFACE_STYLE_USAGE(.BOTH.,#229);
#228=SURFACE_SIDE_STYLE('',(#230));
#229=SURFACE_SIDE_STYLE('',(#231));
#230=SURFACE_STYLE_FILL_AREA(#232);
#231=SURFACE_STYLE_FILL_AREA(#233);
#232=FILL_AREA_STYLE('ABS (White)',(#234));
#233=FILL_AREA_STYLE('Coating - Black Oxide',(#235));
#234=FILL_AREA_STYLE_COLOUR('ABS (White)',#236);
#235=FILL_AREA_STYLE_COLOUR('Coating - Black Oxide',#237);
#236=COLOUR_RGB('ABS (White)',0.964705882352941,0.964705882352941,0.952941176470588);
#237=COLOUR_RGB('Coating - Black Oxide',0.172549019607843,0.172549019607843,
0.172549019607843);
ENDSEC;
END-ISO-10303-21;
