ISO-10303-21;
HEADER;
/* Generated by software containing ST-Developer
 * from STEP Tools, Inc. (www.steptools.com) 
 */

FILE_DESCRIPTION(
/* description */ (''),
/* implementation_level */ '2;1');

FILE_NAME(
/* name */ 'Pedestal_Left 20231213.step',
/* time_stamp */ '2024-01-26T18:54:43-07:00',
/* author */ (''),
/* organization */ (''),
/* preprocessor_version */ 'ST-DEVELOPER v20',
/* originating_system */ 'Autodesk Translation Framework v12.14.0.127',

/* authorisation */ '');

FILE_SCHEMA (('AUTOMOTIVE_DESIGN { 1 0 10303 214 3 1 1 }'));
ENDSEC;

DATA;
#10=MECHANICAL_DESIGN_GEOMETRIC_PRESENTATION_REPRESENTATION('',(#13),#550);
#11=SHAPE_REPRESENTATION_RELATIONSHIP('SRR','None',#557,#12);
#12=ADVANCED_BREP_SHAPE_REPRESENTATION('',(#14),#549);
#13=STYLED_ITEM('',(#566),#14);
#14=MANIFOLD_SOLID_BREP('Body1',#334);
#15=PLANE('',#351);
#16=PLANE('',#355);
#17=PLANE('',#356);
#18=PLANE('',#357);
#19=PLANE('',#358);
#20=PLANE('',#359);
#21=PLANE('',#360);
#22=PLANE('',#361);
#23=PLANE('',#362);
#24=PLANE('',#363);
#25=PLANE('',#364);
#26=PLANE('',#365);
#27=PLANE('',#366);
#28=PLANE('',#367);
#29=PLANE('',#368);
#30=FACE_OUTER_BOUND('',#47,.T.);
#31=FACE_OUTER_BOUND('',#48,.T.);
#32=FACE_OUTER_BOUND('',#49,.T.);
#33=FACE_OUTER_BOUND('',#50,.T.);
#34=FACE_OUTER_BOUND('',#51,.T.);
#35=FACE_OUTER_BOUND('',#52,.T.);
#36=FACE_OUTER_BOUND('',#53,.T.);
#37=FACE_OUTER_BOUND('',#54,.T.);
#38=FACE_OUTER_BOUND('',#55,.T.);
#39=FACE_OUTER_BOUND('',#56,.T.);
#40=FACE_OUTER_BOUND('',#57,.T.);
#41=FACE_OUTER_BOUND('',#58,.T.);
#42=FACE_OUTER_BOUND('',#59,.T.);
#43=FACE_OUTER_BOUND('',#60,.T.);
#44=FACE_OUTER_BOUND('',#61,.T.);
#45=FACE_OUTER_BOUND('',#62,.T.);
#46=FACE_OUTER_BOUND('',#63,.T.);
#47=EDGE_LOOP('',(#225,#226,#227,#228));
#48=EDGE_LOOP('',(#229,#230,#231,#232));
#49=EDGE_LOOP('',(#233,#234,#235,#236));
#50=EDGE_LOOP('',(#237,#238,#239,#240));
#51=EDGE_LOOP('',(#241,#242,#243,#244));
#52=EDGE_LOOP('',(#245,#246,#247,#248,#249,#250,#251,#252,#253,#254,#255,
#256,#257,#258,#259));
#53=EDGE_LOOP('',(#260,#261,#262,#263));
#54=EDGE_LOOP('',(#264,#265,#266,#267));
#55=EDGE_LOOP('',(#268,#269,#270,#271));
#56=EDGE_LOOP('',(#272,#273,#274,#275));
#57=EDGE_LOOP('',(#276,#277,#278,#279));
#58=EDGE_LOOP('',(#280,#281,#282,#283));
#59=EDGE_LOOP('',(#284,#285,#286,#287));
#60=EDGE_LOOP('',(#288,#289,#290,#291));
#61=EDGE_LOOP('',(#292,#293,#294,#295));
#62=EDGE_LOOP('',(#296,#297,#298,#299));
#63=EDGE_LOOP('',(#300,#301,#302,#303,#304,#305,#306,#307,#308,#309,#310,
#311,#312,#313,#314));
#64=LINE('',#460,#105);
#65=LINE('',#463,#106);
#66=LINE('',#466,#107);
#67=LINE('',#468,#108);
#68=LINE('',#469,#109);
#69=LINE('',#475,#110);
#70=LINE('',#478,#111);
#71=LINE('',#480,#112);
#72=LINE('',#481,#113);
#73=LINE('',#484,#114);
#74=LINE('',#486,#115);
#75=LINE('',#487,#116);
#76=LINE('',#490,#117);
#77=LINE('',#492,#118);
#78=LINE('',#494,#119);
#79=LINE('',#496,#120);
#80=LINE('',#498,#121);
#81=LINE('',#500,#122);
#82=LINE('',#502,#123);
#83=LINE('',#504,#124);
#84=LINE('',#506,#125);
#85=LINE('',#507,#126);
#86=LINE('',#510,#127);
#87=LINE('',#511,#128);
#88=LINE('',#515,#129);
#89=LINE('',#516,#130);
#90=LINE('',#517,#131);
#91=LINE('',#520,#132);
#92=LINE('',#521,#133);
#93=LINE('',#523,#134);
#94=LINE('',#526,#135);
#95=LINE('',#527,#136);
#96=LINE('',#530,#137);
#97=LINE('',#531,#138);
#98=LINE('',#534,#139);
#99=LINE('',#535,#140);
#100=LINE('',#538,#141);
#101=LINE('',#539,#142);
#102=LINE('',#542,#143);
#103=LINE('',#543,#144);
#104=LINE('',#545,#145);
#105=VECTOR('',#375,10.);
#106=VECTOR('',#378,10.);
#107=VECTOR('',#381,10.);
#108=VECTOR('',#382,10.);
#109=VECTOR('',#383,10.);
#110=VECTOR('',#388,10.);
#111=VECTOR('',#391,10.);
#112=VECTOR('',#394,10.);
#113=VECTOR('',#395,10.);
#114=VECTOR('',#398,10.);
#115=VECTOR('',#399,10.);
#116=VECTOR('',#400,10.);
#117=VECTOR('',#403,10.);
#118=VECTOR('',#404,10.);
#119=VECTOR('',#405,10.);
#120=VECTOR('',#406,10.);
#121=VECTOR('',#407,10.);
#122=VECTOR('',#408,10.);
#123=VECTOR('',#409,10.);
#124=VECTOR('',#410,10.);
#125=VECTOR('',#411,10.);
#126=VECTOR('',#412,10.);
#127=VECTOR('',#415,10.);
#128=VECTOR('',#416,10.);
#129=VECTOR('',#419,10.);
#130=VECTOR('',#420,10.);
#131=VECTOR('',#421,10.);
#132=VECTOR('',#424,10.);
#133=VECTOR('',#425,10.);
#134=VECTOR('',#428,10.);
#135=VECTOR('',#431,10.);
#136=VECTOR('',#432,10.);
#137=VECTOR('',#435,10.);
#138=VECTOR('',#436,10.);
#139=VECTOR('',#439,10.);
#140=VECTOR('',#440,10.);
#141=VECTOR('',#443,10.);
#142=VECTOR('',#444,10.);
#143=VECTOR('',#447,10.);
#144=VECTOR('',#448,10.);
#145=VECTOR('',#451,10.);
#146=CIRCLE('',#349,5.);
#147=CIRCLE('',#350,5.);
#148=CIRCLE('',#353,5.);
#149=CIRCLE('',#354,5.);
#150=VERTEX_POINT('',#456);
#151=VERTEX_POINT('',#457);
#152=VERTEX_POINT('',#459);
#153=VERTEX_POINT('',#461);
#154=VERTEX_POINT('',#465);
#155=VERTEX_POINT('',#467);
#156=VERTEX_POINT('',#471);
#157=VERTEX_POINT('',#472);
#158=VERTEX_POINT('',#474);
#159=VERTEX_POINT('',#476);
#160=VERTEX_POINT('',#483);
#161=VERTEX_POINT('',#485);
#162=VERTEX_POINT('',#489);
#163=VERTEX_POINT('',#491);
#164=VERTEX_POINT('',#493);
#165=VERTEX_POINT('',#495);
#166=VERTEX_POINT('',#497);
#167=VERTEX_POINT('',#499);
#168=VERTEX_POINT('',#501);
#169=VERTEX_POINT('',#503);
#170=VERTEX_POINT('',#505);
#171=VERTEX_POINT('',#509);
#172=VERTEX_POINT('',#513);
#173=VERTEX_POINT('',#514);
#174=VERTEX_POINT('',#519);
#175=VERTEX_POINT('',#525);
#176=VERTEX_POINT('',#529);
#177=VERTEX_POINT('',#533);
#178=VERTEX_POINT('',#537);
#179=VERTEX_POINT('',#541);
#180=EDGE_CURVE('',#150,#151,#146,.T.);
#181=EDGE_CURVE('',#151,#152,#64,.T.);
#182=EDGE_CURVE('',#152,#153,#147,.T.);
#183=EDGE_CURVE('',#153,#150,#65,.T.);
#184=EDGE_CURVE('',#154,#151,#66,.T.);
#185=EDGE_CURVE('',#155,#154,#67,.T.);
#186=EDGE_CURVE('',#152,#155,#68,.T.);
#187=EDGE_CURVE('',#156,#157,#148,.T.);
#188=EDGE_CURVE('',#157,#158,#69,.T.);
#189=EDGE_CURVE('',#158,#159,#149,.T.);
#190=EDGE_CURVE('',#159,#156,#70,.T.);
#191=EDGE_CURVE('',#158,#153,#71,.T.);
#192=EDGE_CURVE('',#150,#157,#72,.T.);
#193=EDGE_CURVE('',#160,#159,#73,.T.);
#194=EDGE_CURVE('',#161,#160,#74,.T.);
#195=EDGE_CURVE('',#156,#161,#75,.T.);
#196=EDGE_CURVE('',#162,#155,#76,.T.);
#197=EDGE_CURVE('',#163,#162,#77,.T.);
#198=EDGE_CURVE('',#164,#163,#78,.T.);
#199=EDGE_CURVE('',#165,#164,#79,.T.);
#200=EDGE_CURVE('',#166,#165,#80,.T.);
#201=EDGE_CURVE('',#167,#166,#81,.T.);
#202=EDGE_CURVE('',#168,#167,#82,.T.);
#203=EDGE_CURVE('',#169,#168,#83,.T.);
#204=EDGE_CURVE('',#170,#169,#84,.T.);
#205=EDGE_CURVE('',#160,#170,#85,.T.);
#206=EDGE_CURVE('',#171,#154,#86,.T.);
#207=EDGE_CURVE('',#171,#162,#87,.T.);
#208=EDGE_CURVE('',#172,#173,#88,.T.);
#209=EDGE_CURVE('',#173,#169,#89,.T.);
#210=EDGE_CURVE('',#172,#168,#90,.T.);
#211=EDGE_CURVE('',#174,#173,#91,.T.);
#212=EDGE_CURVE('',#174,#170,#92,.T.);
#213=EDGE_CURVE('',#161,#174,#93,.T.);
#214=EDGE_CURVE('',#175,#171,#94,.T.);
#215=EDGE_CURVE('',#175,#163,#95,.T.);
#216=EDGE_CURVE('',#176,#175,#96,.T.);
#217=EDGE_CURVE('',#176,#164,#97,.T.);
#218=EDGE_CURVE('',#177,#176,#98,.T.);
#219=EDGE_CURVE('',#177,#165,#99,.T.);
#220=EDGE_CURVE('',#177,#178,#100,.T.);
#221=EDGE_CURVE('',#178,#166,#101,.T.);
#222=EDGE_CURVE('',#178,#179,#102,.T.);
#223=EDGE_CURVE('',#179,#167,#103,.T.);
#224=EDGE_CURVE('',#172,#179,#104,.T.);
#225=ORIENTED_EDGE('',*,*,#180,.T.);
#226=ORIENTED_EDGE('',*,*,#181,.T.);
#227=ORIENTED_EDGE('',*,*,#182,.T.);
#228=ORIENTED_EDGE('',*,*,#183,.T.);
#229=ORIENTED_EDGE('',*,*,#181,.F.);
#230=ORIENTED_EDGE('',*,*,#184,.F.);
#231=ORIENTED_EDGE('',*,*,#185,.F.);
#232=ORIENTED_EDGE('',*,*,#186,.F.);
#233=ORIENTED_EDGE('',*,*,#187,.T.);
#234=ORIENTED_EDGE('',*,*,#188,.T.);
#235=ORIENTED_EDGE('',*,*,#189,.T.);
#236=ORIENTED_EDGE('',*,*,#190,.T.);
#237=ORIENTED_EDGE('',*,*,#183,.F.);
#238=ORIENTED_EDGE('',*,*,#191,.F.);
#239=ORIENTED_EDGE('',*,*,#188,.F.);
#240=ORIENTED_EDGE('',*,*,#192,.F.);
#241=ORIENTED_EDGE('',*,*,#190,.F.);
#242=ORIENTED_EDGE('',*,*,#193,.F.);
#243=ORIENTED_EDGE('',*,*,#194,.F.);
#244=ORIENTED_EDGE('',*,*,#195,.F.);
#245=ORIENTED_EDGE('',*,*,#193,.T.);
#246=ORIENTED_EDGE('',*,*,#189,.F.);
#247=ORIENTED_EDGE('',*,*,#191,.T.);
#248=ORIENTED_EDGE('',*,*,#182,.F.);
#249=ORIENTED_EDGE('',*,*,#186,.T.);
#250=ORIENTED_EDGE('',*,*,#196,.F.);
#251=ORIENTED_EDGE('',*,*,#197,.F.);
#252=ORIENTED_EDGE('',*,*,#198,.F.);
#253=ORIENTED_EDGE('',*,*,#199,.F.);
#254=ORIENTED_EDGE('',*,*,#200,.F.);
#255=ORIENTED_EDGE('',*,*,#201,.F.);
#256=ORIENTED_EDGE('',*,*,#202,.F.);
#257=ORIENTED_EDGE('',*,*,#203,.F.);
#258=ORIENTED_EDGE('',*,*,#204,.F.);
#259=ORIENTED_EDGE('',*,*,#205,.F.);
#260=ORIENTED_EDGE('',*,*,#185,.T.);
#261=ORIENTED_EDGE('',*,*,#206,.F.);
#262=ORIENTED_EDGE('',*,*,#207,.T.);
#263=ORIENTED_EDGE('',*,*,#196,.T.);
#264=ORIENTED_EDGE('',*,*,#208,.T.);
#265=ORIENTED_EDGE('',*,*,#209,.T.);
#266=ORIENTED_EDGE('',*,*,#203,.T.);
#267=ORIENTED_EDGE('',*,*,#210,.F.);
#268=ORIENTED_EDGE('',*,*,#211,.F.);
#269=ORIENTED_EDGE('',*,*,#212,.T.);
#270=ORIENTED_EDGE('',*,*,#204,.T.);
#271=ORIENTED_EDGE('',*,*,#209,.F.);
#272=ORIENTED_EDGE('',*,*,#194,.T.);
#273=ORIENTED_EDGE('',*,*,#205,.T.);
#274=ORIENTED_EDGE('',*,*,#212,.F.);
#275=ORIENTED_EDGE('',*,*,#213,.F.);
#276=ORIENTED_EDGE('',*,*,#214,.F.);
#277=ORIENTED_EDGE('',*,*,#215,.T.);
#278=ORIENTED_EDGE('',*,*,#197,.T.);
#279=ORIENTED_EDGE('',*,*,#207,.F.);
#280=ORIENTED_EDGE('',*,*,#216,.F.);
#281=ORIENTED_EDGE('',*,*,#217,.T.);
#282=ORIENTED_EDGE('',*,*,#198,.T.);
#283=ORIENTED_EDGE('',*,*,#215,.F.);
#284=ORIENTED_EDGE('',*,*,#218,.F.);
#285=ORIENTED_EDGE('',*,*,#219,.T.);
#286=ORIENTED_EDGE('',*,*,#199,.T.);
#287=ORIENTED_EDGE('',*,*,#217,.F.);
#288=ORIENTED_EDGE('',*,*,#220,.T.);
#289=ORIENTED_EDGE('',*,*,#221,.T.);
#290=ORIENTED_EDGE('',*,*,#200,.T.);
#291=ORIENTED_EDGE('',*,*,#219,.F.);
#292=ORIENTED_EDGE('',*,*,#222,.T.);
#293=ORIENTED_EDGE('',*,*,#223,.T.);
#294=ORIENTED_EDGE('',*,*,#201,.T.);
#295=ORIENTED_EDGE('',*,*,#221,.F.);
#296=ORIENTED_EDGE('',*,*,#224,.F.);
#297=ORIENTED_EDGE('',*,*,#210,.T.);
#298=ORIENTED_EDGE('',*,*,#202,.T.);
#299=ORIENTED_EDGE('',*,*,#223,.F.);
#300=ORIENTED_EDGE('',*,*,#195,.T.);
#301=ORIENTED_EDGE('',*,*,#213,.T.);
#302=ORIENTED_EDGE('',*,*,#211,.T.);
#303=ORIENTED_EDGE('',*,*,#208,.F.);
#304=ORIENTED_EDGE('',*,*,#224,.T.);
#305=ORIENTED_EDGE('',*,*,#222,.F.);
#306=ORIENTED_EDGE('',*,*,#220,.F.);
#307=ORIENTED_EDGE('',*,*,#218,.T.);
#308=ORIENTED_EDGE('',*,*,#216,.T.);
#309=ORIENTED_EDGE('',*,*,#214,.T.);
#310=ORIENTED_EDGE('',*,*,#206,.T.);
#311=ORIENTED_EDGE('',*,*,#184,.T.);
#312=ORIENTED_EDGE('',*,*,#180,.F.);
#313=ORIENTED_EDGE('',*,*,#192,.T.);
#314=ORIENTED_EDGE('',*,*,#187,.F.);
#315=CYLINDRICAL_SURFACE('',#348,5.);
#316=CYLINDRICAL_SURFACE('',#352,5.);
#317=ADVANCED_FACE('',(#30),#315,.F.);
#318=ADVANCED_FACE('',(#31),#15,.F.);
#319=ADVANCED_FACE('',(#32),#316,.F.);
#320=ADVANCED_FACE('',(#33),#16,.F.);
#321=ADVANCED_FACE('',(#34),#17,.F.);
#322=ADVANCED_FACE('',(#35),#18,.F.);
#323=ADVANCED_FACE('',(#36),#19,.F.);
#324=ADVANCED_FACE('',(#37),#20,.F.);
#325=ADVANCED_FACE('',(#38),#21,.F.);
#326=ADVANCED_FACE('',(#39),#22,.F.);
#327=ADVANCED_FACE('',(#40),#23,.F.);
#328=ADVANCED_FACE('',(#41),#24,.F.);
#329=ADVANCED_FACE('',(#42),#25,.F.);
#330=ADVANCED_FACE('',(#43),#26,.F.);
#331=ADVANCED_FACE('',(#44),#27,.F.);
#332=ADVANCED_FACE('',(#45),#28,.F.);
#333=ADVANCED_FACE('',(#46),#29,.T.);
#334=CLOSED_SHELL('',(#317,#318,#319,#320,#321,#322,#323,#324,#325,#326,
#327,#328,#329,#330,#331,#332,#333));
#335=DERIVED_UNIT_ELEMENT(#337,1.);
#336=DERIVED_UNIT_ELEMENT(#552,-3.);
#337=(
MASS_UNIT()
NAMED_UNIT(*)
SI_UNIT(.KILO.,.GRAM.)
);
#338=DERIVED_UNIT((#335,#336));
#339=MEASURE_REPRESENTATION_ITEM('density measure',
POSITIVE_RATIO_MEASURE(1060.),#338);
#340=PROPERTY_DEFINITION_REPRESENTATION(#345,#342);
#341=PROPERTY_DEFINITION_REPRESENTATION(#346,#343);
#342=REPRESENTATION('material name',(#344),#549);
#343=REPRESENTATION('density',(#339),#549);
#344=DESCRIPTIVE_REPRESENTATION_ITEM('ABS Plastic','ABS Plastic');
#345=PROPERTY_DEFINITION('material property','material name',#559);
#346=PROPERTY_DEFINITION('material property','density of part',#559);
#347=AXIS2_PLACEMENT_3D('',#454,#369,#370);
#348=AXIS2_PLACEMENT_3D('',#455,#371,#372);
#349=AXIS2_PLACEMENT_3D('',#458,#373,#374);
#350=AXIS2_PLACEMENT_3D('',#462,#376,#377);
#351=AXIS2_PLACEMENT_3D('',#464,#379,#380);
#352=AXIS2_PLACEMENT_3D('',#470,#384,#385);
#353=AXIS2_PLACEMENT_3D('',#473,#386,#387);
#354=AXIS2_PLACEMENT_3D('',#477,#389,#390);
#355=AXIS2_PLACEMENT_3D('',#479,#392,#393);
#356=AXIS2_PLACEMENT_3D('',#482,#396,#397);
#357=AXIS2_PLACEMENT_3D('',#488,#401,#402);
#358=AXIS2_PLACEMENT_3D('',#508,#413,#414);
#359=AXIS2_PLACEMENT_3D('',#512,#417,#418);
#360=AXIS2_PLACEMENT_3D('',#518,#422,#423);
#361=AXIS2_PLACEMENT_3D('',#522,#426,#427);
#362=AXIS2_PLACEMENT_3D('',#524,#429,#430);
#363=AXIS2_PLACEMENT_3D('',#528,#433,#434);
#364=AXIS2_PLACEMENT_3D('',#532,#437,#438);
#365=AXIS2_PLACEMENT_3D('',#536,#441,#442);
#366=AXIS2_PLACEMENT_3D('',#540,#445,#446);
#367=AXIS2_PLACEMENT_3D('',#544,#449,#450);
#368=AXIS2_PLACEMENT_3D('',#546,#452,#453);
#369=DIRECTION('axis',(0.,0.,1.));
#370=DIRECTION('refdir',(1.,0.,0.));
#371=DIRECTION('center_axis',(-1.,0.,0.));
#372=DIRECTION('ref_axis',(0.,-0.589469070059427,-0.807790947859206));
#373=DIRECTION('center_axis',(1.,0.,0.));
#374=DIRECTION('ref_axis',(0.,-0.589469070059427,-0.807790947859206));
#375=DIRECTION('',(-1.,0.,0.));
#376=DIRECTION('center_axis',(-1.,0.,0.));
#377=DIRECTION('ref_axis',(0.,-0.589469070059427,-0.807790947859206));
#378=DIRECTION('',(1.,0.,0.));
#379=DIRECTION('center_axis',(0.,0.154376880273607,-0.988012033751102));
#380=DIRECTION('ref_axis',(0.,-0.988012033751102,-0.154376880273607));
#381=DIRECTION('',(0.,-0.988012033751102,-0.154376880273607));
#382=DIRECTION('',(1.,0.,0.));
#383=DIRECTION('',(0.,0.988012033751102,0.154376880273607));
#384=DIRECTION('center_axis',(-1.,0.,0.));
#385=DIRECTION('ref_axis',(0.,-0.807790947859208,0.589469070059424));
#386=DIRECTION('center_axis',(1.,0.,0.));
#387=DIRECTION('ref_axis',(0.,-0.807790947859208,0.589469070059424));
#388=DIRECTION('',(-1.,0.,0.));
#389=DIRECTION('center_axis',(-1.,0.,0.));
#390=DIRECTION('ref_axis',(0.,-0.807790947859208,0.589469070059424));
#391=DIRECTION('',(1.,0.,0.));
#392=DIRECTION('center_axis',(0.,-0.988012033751101,-0.15437688027361));
#393=DIRECTION('ref_axis',(0.,-0.15437688027361,0.988012033751101));
#394=DIRECTION('',(0.,0.15437688027361,-0.988012033751101));
#395=DIRECTION('',(0.,-0.15437688027361,0.988012033751101));
#396=DIRECTION('center_axis',(0.,-0.154376880273609,0.988012033751101));
#397=DIRECTION('ref_axis',(0.,0.988012033751101,0.154376880273609));
#398=DIRECTION('',(0.,-0.988012033751101,-0.154376880273609));
#399=DIRECTION('',(-1.,0.,0.));
#400=DIRECTION('',(0.,0.988012033751101,0.154376880273609));
#401=DIRECTION('center_axis',(1.,0.,0.));
#402=DIRECTION('ref_axis',(0.,0.,-1.));
#403=DIRECTION('',(0.,-0.15437688027361,0.988012033751101));
#404=DIRECTION('',(0.,0.167872765534742,0.985808670377634));
#405=DIRECTION('',(0.,-1.,5.82975856408673E-16));
#406=DIRECTION('',(0.,0.,1.));
#407=DIRECTION('',(0.,1.,0.));
#408=DIRECTION('',(0.,-0.129932396889187,-0.991522855126714));
#409=DIRECTION('',(0.,-1.,-1.41729189728327E-16));
#410=DIRECTION('',(1.77635683940024E-15,1.88649096344306E-12,1.));
#411=DIRECTION('',(0.,-1.,0.));
#412=DIRECTION('',(0.,-0.15437688027361,0.988012033751101));
#413=DIRECTION('center_axis',(0.,-0.988012033751101,-0.15437688027361));
#414=DIRECTION('ref_axis',(0.,-0.15437688027361,0.988012033751101));
#415=DIRECTION('',(0.,-0.15437688027361,0.988012033751101));
#416=DIRECTION('',(-1.,0.,0.));
#417=DIRECTION('center_axis',(0.,-1.,1.88649096344306E-12));
#418=DIRECTION('ref_axis',(1.77635683940024E-15,1.88649096344306E-12,1.));
#419=DIRECTION('',(-1.77635683940024E-15,-1.88649096344306E-12,-1.));
#420=DIRECTION('',(-1.,0.,0.));
#421=DIRECTION('',(-1.,0.,0.));
#422=DIRECTION('center_axis',(0.,0.,-1.));
#423=DIRECTION('ref_axis',(0.,-1.,0.));
#424=DIRECTION('',(0.,-1.,0.));
#425=DIRECTION('',(-1.,0.,0.));
#426=DIRECTION('center_axis',(0.,-0.988012033751101,-0.15437688027361));
#427=DIRECTION('ref_axis',(0.,-0.15437688027361,0.988012033751101));
#428=DIRECTION('',(0.,-0.15437688027361,0.988012033751101));
#429=DIRECTION('center_axis',(0.,-0.985808670377633,0.167872765534742));
#430=DIRECTION('ref_axis',(0.,0.167872765534742,0.985808670377634));
#431=DIRECTION('',(0.,0.167872765534742,0.985808670377634));
#432=DIRECTION('',(-1.,0.,0.));
#433=DIRECTION('center_axis',(0.,-5.82975856408673E-16,-1.));
#434=DIRECTION('ref_axis',(0.,-1.,5.82975856408673E-16));
#435=DIRECTION('',(0.,-1.,5.82975856408673E-16));
#436=DIRECTION('',(-1.,0.,0.));
#437=DIRECTION('center_axis',(0.,-1.,0.));
#438=DIRECTION('ref_axis',(0.,0.,1.));
#439=DIRECTION('',(0.,0.,1.));
#440=DIRECTION('',(-1.,0.,0.));
#441=DIRECTION('center_axis',(0.,0.,1.));
#442=DIRECTION('ref_axis',(0.,1.,0.));
#443=DIRECTION('',(0.,-1.,0.));
#444=DIRECTION('',(-1.,0.,0.));
#445=DIRECTION('center_axis',(0.,0.991522855126714,-0.129932396889187));
#446=DIRECTION('ref_axis',(0.,-0.129932396889187,-0.991522855126714));
#447=DIRECTION('',(0.,0.129932396889187,0.991522855126714));
#448=DIRECTION('',(-1.,0.,0.));
#449=DIRECTION('center_axis',(0.,1.41729189728327E-16,-1.));
#450=DIRECTION('ref_axis',(0.,-1.,-1.41729189728327E-16));
#451=DIRECTION('',(0.,-1.,-1.41729189728327E-16));
#452=DIRECTION('center_axis',(1.,0.,0.));
#453=DIRECTION('ref_axis',(0.,1.,0.));
#454=CARTESIAN_POINT('',(0.,0.,0.));
#455=CARTESIAN_POINT('Origin',(77.788,370.827831044535,-150.615930298621));
#456=CARTESIAN_POINT('',(77.788,365.88777087578,-151.387814699989));
#457=CARTESIAN_POINT('',(77.788,371.599715445903,-155.555990467377));
#458=CARTESIAN_POINT('Origin',(77.788,370.827831044535,-150.615930298621));
#459=CARTESIAN_POINT('',(59.53175,371.599715445903,-155.555990467377));
#460=CARTESIAN_POINT('',(77.788,371.599715445903,-155.555990467377));
#461=CARTESIAN_POINT('',(59.53175,365.88777087578,-151.387814699989));
#462=CARTESIAN_POINT('Origin',(59.53175,370.827831044535,-150.615930298621));
#463=CARTESIAN_POINT('',(77.788,365.88777087578,-151.387814699989));
#464=CARTESIAN_POINT('Origin',(77.788,411.120196795947,-149.380915256433));
#465=CARTESIAN_POINT('',(77.788,411.120196795947,-149.380915256433));
#466=CARTESIAN_POINT('',(77.788,377.743629398435,-154.596003912294));
#467=CARTESIAN_POINT('',(59.53175,411.120196795947,-149.380915256433));
#468=CARTESIAN_POINT('',(77.788,411.120196795947,-149.380915256433));
#469=CARTESIAN_POINT('',(59.53175,377.743629398435,-154.596003912294));
#470=CARTESIAN_POINT('Origin',(77.788,357.406097065056,-64.716832829954));
#471=CARTESIAN_POINT('',(77.788,356.634212663688,-59.7767726611985));
#472=CARTESIAN_POINT('',(77.788,352.4660368963,-65.488717231322));
#473=CARTESIAN_POINT('Origin',(77.788,357.406097065056,-64.716832829954));
#474=CARTESIAN_POINT('',(59.53175,352.4660368963,-65.488717231322));
#475=CARTESIAN_POINT('',(77.788,352.4660368963,-65.488717231322));
#476=CARTESIAN_POINT('',(59.53175,356.634212663688,-59.7767726611985));
#477=CARTESIAN_POINT('Origin',(59.53175,357.406097065056,-64.716832829954));
#478=CARTESIAN_POINT('',(77.788,356.634212663688,-59.7767726611985));
#479=CARTESIAN_POINT('Origin',(77.788,366.659655277148,-156.327874868745));
#480=CARTESIAN_POINT('',(59.53175,353.721374276721,-73.5228764660169));
#481=CARTESIAN_POINT('',(77.788,353.721374276721,-73.5228764660169));
#482=CARTESIAN_POINT('Origin',(77.788,351.694152494932,-60.5486570625665));
#483=CARTESIAN_POINT('',(59.53175,396.154694013732,-53.6016974502541));
#484=CARTESIAN_POINT('',(59.53175,340.54785585682,-62.2902659122715));
#485=CARTESIAN_POINT('',(77.788,396.154694013732,-53.6016974502541));
#486=CARTESIAN_POINT('',(77.788,396.154694013732,-53.6016974502541));
#487=CARTESIAN_POINT('',(77.788,340.54785585682,-62.2902659122715));
#488=CARTESIAN_POINT('Origin',(59.53175,318.490500000071,5.79890423730102));
#489=CARTESIAN_POINT('',(59.53175,413.435850000051,-164.201095762699));
#490=CARTESIAN_POINT('',(59.53175,413.435850000051,-164.201095762699));
#491=CARTESIAN_POINT('',(59.53175,388.435850000051,-311.01));
#492=CARTESIAN_POINT('',(59.53175,388.435850000051,-311.01));
#493=CARTESIAN_POINT('',(59.53175,510.317867574035,-311.01));
#494=CARTESIAN_POINT('',(59.53175,510.317867574035,-311.01));
#495=CARTESIAN_POINT('',(59.53175,510.317867574035,-456.701095762699));
#496=CARTESIAN_POINT('',(59.53175,510.317867574035,-461.01));
#497=CARTESIAN_POINT('',(59.53175,210.882520473989,-456.701095762699));
#498=CARTESIAN_POINT('',(59.53175,683.79737593464,-456.701095762699));
#499=CARTESIAN_POINT('',(59.53175,272.800465393469,15.798904237301));
#500=CARTESIAN_POINT('',(59.53175,270.179600000051,-4.20109576269901));
#501=CARTESIAN_POINT('',(59.53175,366.801400000089,15.7989042373011));
#502=CARTESIAN_POINT('',(59.53175,366.801400000089,15.798904237301));
#503=CARTESIAN_POINT('',(59.53175,366.801400000052,-4.20109576269901));
#504=CARTESIAN_POINT('',(59.53175,366.801400000089,15.7989042373011));
#505=CARTESIAN_POINT('',(59.53175,388.435850000051,-4.20109576269901));
#506=CARTESIAN_POINT('',(59.53175,388.435850000051,-4.20109576269901));
#507=CARTESIAN_POINT('',(59.53175,413.435850000051,-164.201095762699));
#508=CARTESIAN_POINT('Origin',(77.788,413.435850000051,-164.201095762699));
#509=CARTESIAN_POINT('',(77.788,413.435850000051,-164.201095762699));
#510=CARTESIAN_POINT('',(77.788,413.435850000051,-164.201095762699));
#511=CARTESIAN_POINT('',(77.788,413.435850000051,-164.201095762699));
#512=CARTESIAN_POINT('Origin',(77.788,366.801400000052,-4.20109576269901));
#513=CARTESIAN_POINT('',(77.788,366.801400000089,15.7989042373011));
#514=CARTESIAN_POINT('',(77.788,366.801400000052,-4.20109576269901));
#515=CARTESIAN_POINT('',(77.788,366.801400000089,15.7989042373011));
#516=CARTESIAN_POINT('',(77.788,366.801400000052,-4.20109576269901));
#517=CARTESIAN_POINT('',(77.788,366.801400000089,15.7989042373011));
#518=CARTESIAN_POINT('Origin',(77.788,388.435850000051,-4.20109576269901));
#519=CARTESIAN_POINT('',(77.788,388.435850000051,-4.20109576269901));
#520=CARTESIAN_POINT('',(77.788,388.435850000051,-4.20109576269901));
#521=CARTESIAN_POINT('',(77.788,388.435850000051,-4.20109576269901));
#522=CARTESIAN_POINT('Origin',(77.788,413.435850000051,-164.201095762699));
#523=CARTESIAN_POINT('',(77.788,413.435850000051,-164.201095762699));
#524=CARTESIAN_POINT('Origin',(77.788,388.435850000051,-311.01));
#525=CARTESIAN_POINT('',(77.788,388.435850000051,-311.01));
#526=CARTESIAN_POINT('',(77.788,388.435850000051,-311.01));
#527=CARTESIAN_POINT('',(77.788,388.435850000051,-311.01));
#528=CARTESIAN_POINT('Origin',(77.788,510.317867574035,-311.01));
#529=CARTESIAN_POINT('',(77.788,510.317867574035,-311.01));
#530=CARTESIAN_POINT('',(77.788,510.317867574035,-311.01));
#531=CARTESIAN_POINT('',(77.788,510.317867574035,-311.01));
#532=CARTESIAN_POINT('Origin',(77.788,510.317867574035,-456.701095762699));
#533=CARTESIAN_POINT('',(77.788,510.317867574035,-456.701095762699));
#534=CARTESIAN_POINT('',(77.788,510.317867574035,-461.01));
#535=CARTESIAN_POINT('',(77.788,510.317867574035,-456.701095762699));
#536=CARTESIAN_POINT('Origin',(77.788,210.882520473989,-456.701095762699));
#537=CARTESIAN_POINT('',(77.788,210.882520473989,-456.701095762699));
#538=CARTESIAN_POINT('',(77.788,683.79737593464,-456.701095762699));
#539=CARTESIAN_POINT('',(77.788,210.882520473989,-456.701095762699));
#540=CARTESIAN_POINT('Origin',(77.788,272.800465393469,15.798904237301));
#541=CARTESIAN_POINT('',(77.788,272.800465393469,15.798904237301));
#542=CARTESIAN_POINT('',(77.788,270.179600000051,-4.20109576269901));
#543=CARTESIAN_POINT('',(77.788,272.800465393469,15.798904237301));
#544=CARTESIAN_POINT('Origin',(77.788,366.801400000089,15.798904237301));
#545=CARTESIAN_POINT('',(77.788,366.801400000089,15.798904237301));
#546=CARTESIAN_POINT('Origin',(77.788,318.490500000071,5.79890423730102));
#547=UNCERTAINTY_MEASURE_WITH_UNIT(LENGTH_MEASURE(0.01),#551,
'DISTANCE_ACCURACY_VALUE',
'Maximum model space distance between geometric entities at asserted c
onnectivities');
#548=UNCERTAINTY_MEASURE_WITH_UNIT(LENGTH_MEASURE(0.01),#551,
'DISTANCE_ACCURACY_VALUE',
'Maximum model space distance between geometric entities at asserted c
onnectivities');
#549=(
GEOMETRIC_REPRESENTATION_CONTEXT(3)
GLOBAL_UNCERTAINTY_ASSIGNED_CONTEXT((#547))
GLOBAL_UNIT_ASSIGNED_CONTEXT((#551,#553,#554))
REPRESENTATION_CONTEXT('','3D')
);
#550=(
GEOMETRIC_REPRESENTATION_CONTEXT(3)
GLOBAL_UNCERTAINTY_ASSIGNED_CONTEXT((#548))
GLOBAL_UNIT_ASSIGNED_CONTEXT((#551,#553,#554))
REPRESENTATION_CONTEXT('','3D')
);
#551=(
LENGTH_UNIT()
NAMED_UNIT(*)
SI_UNIT(.MILLI.,.METRE.)
);
#552=(
LENGTH_UNIT()
NAMED_UNIT(*)
SI_UNIT($,.METRE.)
);
#553=(
NAMED_UNIT(*)
PLANE_ANGLE_UNIT()
SI_UNIT($,.RADIAN.)
);
#554=(
NAMED_UNIT(*)
SI_UNIT($,.STERADIAN.)
SOLID_ANGLE_UNIT()
);
#555=SHAPE_DEFINITION_REPRESENTATION(#556,#557);
#556=PRODUCT_DEFINITION_SHAPE('',$,#559);
#557=SHAPE_REPRESENTATION('',(#347),#549);
#558=PRODUCT_DEFINITION_CONTEXT('part definition',#563,'design');
#559=PRODUCT_DEFINITION('Left','Left',#560,#558);
#560=PRODUCT_DEFINITION_FORMATION('',$,#565);
#561=PRODUCT_RELATED_PRODUCT_CATEGORY('Left','Left',(#565));
#562=APPLICATION_PROTOCOL_DEFINITION('international standard',
'automotive_design',2009,#563);
#563=APPLICATION_CONTEXT(
'Core Data for Automotive Mechanical Design Process');
#564=PRODUCT_CONTEXT('part definition',#563,'mechanical');
#565=PRODUCT('Left','Left',$,(#564));
#566=PRESENTATION_STYLE_ASSIGNMENT((#567));
#567=SURFACE_STYLE_USAGE(.BOTH.,#568);
#568=SURFACE_SIDE_STYLE('',(#569));
#569=SURFACE_STYLE_FILL_AREA(#570);
#570=FILL_AREA_STYLE('ABS (White)',(#571));
#571=FILL_AREA_STYLE_COLOUR('ABS (White)',#572);
#572=COLOUR_RGB('ABS (White)',0.964705882352941,0.964705882352941,0.952941176470588);
ENDSEC;
END-ISO-10303-21;
