ISO-10303-21;
HEADER;
/* Generated by software containing ST-Developer
 * from STEP Tools, Inc. (www.steptools.com) 
 */

FILE_DESCRIPTION(
/* description */ (''),
/* implementation_level */ '2;1');

FILE_NAME(
/* name */ 'Pedestal_Right 20231213.step',
/* time_stamp */ '2024-01-26T18:55:05-07:00',
/* author */ (''),
/* organization */ (''),
/* preprocessor_version */ 'ST-DEVELOPER v20',
/* originating_system */ 'Autodesk Translation Framework v12.14.0.127',

/* authorisation */ '');

FILE_SCHEMA (('AUTOMOTIVE_DESIGN { 1 0 10303 214 3 1 1 }'));
ENDSEC;

DATA;
#10=MECHANICAL_DESIGN_GEOMETRIC_PRESENTATION_REPRESENTATION('',(#13),#348);
#11=SHAPE_REPRESENTATION_RELATIONSHIP('SRR','None',#355,#12);
#12=ADVANCED_BREP_SHAPE_REPRESENTATION('',(#14),#347);
#13=STYLED_ITEM('',(#364),#14);
#14=MANIFOLD_SOLID_BREP('Body1',#212);
#15=FACE_OUTER_BOUND('',#26,.T.);
#16=FACE_OUTER_BOUND('',#27,.T.);
#17=FACE_OUTER_BOUND('',#28,.T.);
#18=FACE_OUTER_BOUND('',#29,.T.);
#19=FACE_OUTER_BOUND('',#30,.T.);
#20=FACE_OUTER_BOUND('',#31,.T.);
#21=FACE_OUTER_BOUND('',#32,.T.);
#22=FACE_OUTER_BOUND('',#33,.T.);
#23=FACE_OUTER_BOUND('',#34,.T.);
#24=FACE_OUTER_BOUND('',#35,.T.);
#25=FACE_OUTER_BOUND('',#36,.T.);
#26=EDGE_LOOP('',(#136,#137,#138,#139));
#27=EDGE_LOOP('',(#140,#141,#142,#143));
#28=EDGE_LOOP('',(#144,#145,#146,#147));
#29=EDGE_LOOP('',(#148,#149,#150,#151));
#30=EDGE_LOOP('',(#152,#153,#154,#155));
#31=EDGE_LOOP('',(#156,#157,#158,#159));
#32=EDGE_LOOP('',(#160,#161,#162,#163));
#33=EDGE_LOOP('',(#164,#165,#166,#167));
#34=EDGE_LOOP('',(#168,#169,#170,#171));
#35=EDGE_LOOP('',(#172,#173,#174,#175,#176,#177,#178,#179,#180));
#36=EDGE_LOOP('',(#181,#182,#183,#184,#185,#186,#187,#188,#189));
#37=LINE('',#292,#64);
#38=LINE('',#294,#65);
#39=LINE('',#296,#66);
#40=LINE('',#297,#67);
#41=LINE('',#300,#68);
#42=LINE('',#302,#69);
#43=LINE('',#303,#70);
#44=LINE('',#306,#71);
#45=LINE('',#308,#72);
#46=LINE('',#309,#73);
#47=LINE('',#312,#74);
#48=LINE('',#314,#75);
#49=LINE('',#315,#76);
#50=LINE('',#318,#77);
#51=LINE('',#320,#78);
#52=LINE('',#321,#79);
#53=LINE('',#324,#80);
#54=LINE('',#326,#81);
#55=LINE('',#327,#82);
#56=LINE('',#330,#83);
#57=LINE('',#332,#84);
#58=LINE('',#333,#85);
#59=LINE('',#336,#86);
#60=LINE('',#338,#87);
#61=LINE('',#339,#88);
#62=LINE('',#341,#89);
#63=LINE('',#342,#90);
#64=VECTOR('',#241,10.);
#65=VECTOR('',#242,10.);
#66=VECTOR('',#243,10.);
#67=VECTOR('',#244,10.);
#68=VECTOR('',#247,10.);
#69=VECTOR('',#248,10.);
#70=VECTOR('',#249,10.);
#71=VECTOR('',#252,10.);
#72=VECTOR('',#253,10.);
#73=VECTOR('',#254,10.);
#74=VECTOR('',#257,10.);
#75=VECTOR('',#258,10.);
#76=VECTOR('',#259,10.);
#77=VECTOR('',#262,10.);
#78=VECTOR('',#263,10.);
#79=VECTOR('',#264,10.);
#80=VECTOR('',#267,10.);
#81=VECTOR('',#268,10.);
#82=VECTOR('',#269,10.);
#83=VECTOR('',#272,10.);
#84=VECTOR('',#273,10.);
#85=VECTOR('',#274,10.);
#86=VECTOR('',#277,10.);
#87=VECTOR('',#278,10.);
#88=VECTOR('',#279,10.);
#89=VECTOR('',#282,10.);
#90=VECTOR('',#283,10.);
#91=VERTEX_POINT('',#290);
#92=VERTEX_POINT('',#291);
#93=VERTEX_POINT('',#293);
#94=VERTEX_POINT('',#295);
#95=VERTEX_POINT('',#299);
#96=VERTEX_POINT('',#301);
#97=VERTEX_POINT('',#305);
#98=VERTEX_POINT('',#307);
#99=VERTEX_POINT('',#311);
#100=VERTEX_POINT('',#313);
#101=VERTEX_POINT('',#317);
#102=VERTEX_POINT('',#319);
#103=VERTEX_POINT('',#323);
#104=VERTEX_POINT('',#325);
#105=VERTEX_POINT('',#329);
#106=VERTEX_POINT('',#331);
#107=VERTEX_POINT('',#335);
#108=VERTEX_POINT('',#337);
#109=EDGE_CURVE('',#91,#92,#37,.T.);
#110=EDGE_CURVE('',#91,#93,#38,.T.);
#111=EDGE_CURVE('',#94,#93,#39,.T.);
#112=EDGE_CURVE('',#92,#94,#40,.T.);
#113=EDGE_CURVE('',#95,#92,#41,.T.);
#114=EDGE_CURVE('',#96,#94,#42,.T.);
#115=EDGE_CURVE('',#95,#96,#43,.T.);
#116=EDGE_CURVE('',#97,#95,#44,.T.);
#117=EDGE_CURVE('',#98,#96,#45,.T.);
#118=EDGE_CURVE('',#97,#98,#46,.T.);
#119=EDGE_CURVE('',#99,#97,#47,.T.);
#120=EDGE_CURVE('',#100,#98,#48,.T.);
#121=EDGE_CURVE('',#99,#100,#49,.T.);
#122=EDGE_CURVE('',#101,#99,#50,.T.);
#123=EDGE_CURVE('',#102,#100,#51,.T.);
#124=EDGE_CURVE('',#101,#102,#52,.T.);
#125=EDGE_CURVE('',#103,#101,#53,.T.);
#126=EDGE_CURVE('',#104,#102,#54,.T.);
#127=EDGE_CURVE('',#103,#104,#55,.T.);
#128=EDGE_CURVE('',#103,#105,#56,.T.);
#129=EDGE_CURVE('',#106,#104,#57,.T.);
#130=EDGE_CURVE('',#105,#106,#58,.T.);
#131=EDGE_CURVE('',#105,#107,#59,.T.);
#132=EDGE_CURVE('',#108,#106,#60,.T.);
#133=EDGE_CURVE('',#107,#108,#61,.T.);
#134=EDGE_CURVE('',#91,#107,#62,.T.);
#135=EDGE_CURVE('',#93,#108,#63,.T.);
#136=ORIENTED_EDGE('',*,*,#109,.F.);
#137=ORIENTED_EDGE('',*,*,#110,.T.);
#138=ORIENTED_EDGE('',*,*,#111,.F.);
#139=ORIENTED_EDGE('',*,*,#112,.F.);
#140=ORIENTED_EDGE('',*,*,#113,.T.);
#141=ORIENTED_EDGE('',*,*,#112,.T.);
#142=ORIENTED_EDGE('',*,*,#114,.F.);
#143=ORIENTED_EDGE('',*,*,#115,.F.);
#144=ORIENTED_EDGE('',*,*,#116,.T.);
#145=ORIENTED_EDGE('',*,*,#115,.T.);
#146=ORIENTED_EDGE('',*,*,#117,.F.);
#147=ORIENTED_EDGE('',*,*,#118,.F.);
#148=ORIENTED_EDGE('',*,*,#119,.T.);
#149=ORIENTED_EDGE('',*,*,#118,.T.);
#150=ORIENTED_EDGE('',*,*,#120,.F.);
#151=ORIENTED_EDGE('',*,*,#121,.F.);
#152=ORIENTED_EDGE('',*,*,#122,.T.);
#153=ORIENTED_EDGE('',*,*,#121,.T.);
#154=ORIENTED_EDGE('',*,*,#123,.F.);
#155=ORIENTED_EDGE('',*,*,#124,.F.);
#156=ORIENTED_EDGE('',*,*,#125,.T.);
#157=ORIENTED_EDGE('',*,*,#124,.T.);
#158=ORIENTED_EDGE('',*,*,#126,.F.);
#159=ORIENTED_EDGE('',*,*,#127,.F.);
#160=ORIENTED_EDGE('',*,*,#128,.F.);
#161=ORIENTED_EDGE('',*,*,#127,.T.);
#162=ORIENTED_EDGE('',*,*,#129,.F.);
#163=ORIENTED_EDGE('',*,*,#130,.F.);
#164=ORIENTED_EDGE('',*,*,#131,.F.);
#165=ORIENTED_EDGE('',*,*,#130,.T.);
#166=ORIENTED_EDGE('',*,*,#132,.F.);
#167=ORIENTED_EDGE('',*,*,#133,.F.);
#168=ORIENTED_EDGE('',*,*,#134,.T.);
#169=ORIENTED_EDGE('',*,*,#133,.T.);
#170=ORIENTED_EDGE('',*,*,#135,.F.);
#171=ORIENTED_EDGE('',*,*,#110,.F.);
#172=ORIENTED_EDGE('',*,*,#135,.T.);
#173=ORIENTED_EDGE('',*,*,#132,.T.);
#174=ORIENTED_EDGE('',*,*,#129,.T.);
#175=ORIENTED_EDGE('',*,*,#126,.T.);
#176=ORIENTED_EDGE('',*,*,#123,.T.);
#177=ORIENTED_EDGE('',*,*,#120,.T.);
#178=ORIENTED_EDGE('',*,*,#117,.T.);
#179=ORIENTED_EDGE('',*,*,#114,.T.);
#180=ORIENTED_EDGE('',*,*,#111,.T.);
#181=ORIENTED_EDGE('',*,*,#134,.F.);
#182=ORIENTED_EDGE('',*,*,#109,.T.);
#183=ORIENTED_EDGE('',*,*,#113,.F.);
#184=ORIENTED_EDGE('',*,*,#116,.F.);
#185=ORIENTED_EDGE('',*,*,#119,.F.);
#186=ORIENTED_EDGE('',*,*,#122,.F.);
#187=ORIENTED_EDGE('',*,*,#125,.F.);
#188=ORIENTED_EDGE('',*,*,#128,.T.);
#189=ORIENTED_EDGE('',*,*,#131,.T.);
#190=PLANE('',#226);
#191=PLANE('',#227);
#192=PLANE('',#228);
#193=PLANE('',#229);
#194=PLANE('',#230);
#195=PLANE('',#231);
#196=PLANE('',#232);
#197=PLANE('',#233);
#198=PLANE('',#234);
#199=PLANE('',#235);
#200=PLANE('',#236);
#201=ADVANCED_FACE('',(#15),#190,.T.);
#202=ADVANCED_FACE('',(#16),#191,.T.);
#203=ADVANCED_FACE('',(#17),#192,.T.);
#204=ADVANCED_FACE('',(#18),#193,.T.);
#205=ADVANCED_FACE('',(#19),#194,.T.);
#206=ADVANCED_FACE('',(#20),#195,.T.);
#207=ADVANCED_FACE('',(#21),#196,.T.);
#208=ADVANCED_FACE('',(#22),#197,.T.);
#209=ADVANCED_FACE('',(#23),#198,.T.);
#210=ADVANCED_FACE('',(#24),#199,.T.);
#211=ADVANCED_FACE('',(#25),#200,.F.);
#212=CLOSED_SHELL('',(#201,#202,#203,#204,#205,#206,#207,#208,#209,#210,
#211));
#213=DERIVED_UNIT_ELEMENT(#215,1.);
#214=DERIVED_UNIT_ELEMENT(#350,-3.);
#215=(
MASS_UNIT()
NAMED_UNIT(*)
SI_UNIT(.KILO.,.GRAM.)
);
#216=DERIVED_UNIT((#213,#214));
#217=MEASURE_REPRESENTATION_ITEM('density measure',
POSITIVE_RATIO_MEASURE(1060.),#216);
#218=PROPERTY_DEFINITION_REPRESENTATION(#223,#220);
#219=PROPERTY_DEFINITION_REPRESENTATION(#224,#221);
#220=REPRESENTATION('material name',(#222),#347);
#221=REPRESENTATION('density',(#217),#347);
#222=DESCRIPTIVE_REPRESENTATION_ITEM('ABS Plastic','ABS Plastic');
#223=PROPERTY_DEFINITION('material property','material name',#357);
#224=PROPERTY_DEFINITION('material property','density of part',#357);
#225=AXIS2_PLACEMENT_3D('',#288,#237,#238);
#226=AXIS2_PLACEMENT_3D('',#289,#239,#240);
#227=AXIS2_PLACEMENT_3D('',#298,#245,#246);
#228=AXIS2_PLACEMENT_3D('',#304,#250,#251);
#229=AXIS2_PLACEMENT_3D('',#310,#255,#256);
#230=AXIS2_PLACEMENT_3D('',#316,#260,#261);
#231=AXIS2_PLACEMENT_3D('',#322,#265,#266);
#232=AXIS2_PLACEMENT_3D('',#328,#270,#271);
#233=AXIS2_PLACEMENT_3D('',#334,#275,#276);
#234=AXIS2_PLACEMENT_3D('',#340,#280,#281);
#235=AXIS2_PLACEMENT_3D('',#343,#284,#285);
#236=AXIS2_PLACEMENT_3D('',#344,#286,#287);
#237=DIRECTION('axis',(0.,0.,1.));
#238=DIRECTION('refdir',(1.,0.,0.));
#239=DIRECTION('center_axis',(0.,1.,-1.88649096344306E-12));
#240=DIRECTION('ref_axis',(-1.77635683940024E-15,1.88649096344306E-12,1.));
#241=DIRECTION('',(1.77635683940024E-15,-1.88649096344306E-12,-1.));
#242=DIRECTION('',(1.,0.,0.));
#243=DIRECTION('',(-1.77635683940024E-15,1.88649096344306E-12,1.));
#244=DIRECTION('',(1.,0.,0.));
#245=DIRECTION('center_axis',(0.,0.,1.));
#246=DIRECTION('ref_axis',(0.,-1.,0.));
#247=DIRECTION('',(0.,-1.,0.));
#248=DIRECTION('',(0.,-1.,0.));
#249=DIRECTION('',(1.,0.,0.));
#250=DIRECTION('center_axis',(0.,0.988012033751101,0.15437688027361));
#251=DIRECTION('ref_axis',(0.,-0.15437688027361,0.988012033751101));
#252=DIRECTION('',(0.,-0.15437688027361,0.988012033751101));
#253=DIRECTION('',(0.,-0.15437688027361,0.988012033751101));
#254=DIRECTION('',(1.,0.,0.));
#255=DIRECTION('center_axis',(0.,0.985808670377633,-0.167872765534742));
#256=DIRECTION('ref_axis',(0.,0.167872765534742,0.985808670377634));
#257=DIRECTION('',(0.,0.167872765534742,0.985808670377634));
#258=DIRECTION('',(0.,0.167872765534742,0.985808670377634));
#259=DIRECTION('',(1.,0.,0.));
#260=DIRECTION('center_axis',(0.,5.82975856408673E-16,1.));
#261=DIRECTION('ref_axis',(0.,-1.,5.82975856408673E-16));
#262=DIRECTION('',(0.,-1.,5.82975856408673E-16));
#263=DIRECTION('',(0.,-1.,5.82975856408673E-16));
#264=DIRECTION('',(1.,0.,0.));
#265=DIRECTION('center_axis',(0.,1.,0.));
#266=DIRECTION('ref_axis',(0.,0.,1.));
#267=DIRECTION('',(0.,0.,1.));
#268=DIRECTION('',(0.,0.,1.));
#269=DIRECTION('',(1.,0.,0.));
#270=DIRECTION('center_axis',(0.,0.,-1.));
#271=DIRECTION('ref_axis',(0.,1.,0.));
#272=DIRECTION('',(0.,-1.,0.));
#273=DIRECTION('',(0.,1.,0.));
#274=DIRECTION('',(1.,0.,0.));
#275=DIRECTION('center_axis',(0.,-0.991522855126714,0.129932396889187));
#276=DIRECTION('ref_axis',(0.,-0.129932396889187,-0.991522855126714));
#277=DIRECTION('',(0.,0.129932396889187,0.991522855126714));
#278=DIRECTION('',(0.,-0.129932396889187,-0.991522855126714));
#279=DIRECTION('',(1.,0.,0.));
#280=DIRECTION('center_axis',(0.,-1.41729189728327E-16,1.));
#281=DIRECTION('ref_axis',(0.,-1.,-1.41729189728327E-16));
#282=DIRECTION('',(0.,-1.,-1.41729189728327E-16));
#283=DIRECTION('',(0.,-1.,-1.41729189728327E-16));
#284=DIRECTION('center_axis',(1.,0.,0.));
#285=DIRECTION('ref_axis',(0.,0.,-1.));
#286=DIRECTION('center_axis',(1.,0.,0.));
#287=DIRECTION('ref_axis',(0.,1.,0.));
#288=CARTESIAN_POINT('',(0.,0.,0.));
#289=CARTESIAN_POINT('Origin',(-77.788,366.801400000052,-4.20109576269901));
#290=CARTESIAN_POINT('',(-77.788,366.801400000089,15.7989042373011));
#291=CARTESIAN_POINT('',(-77.788,366.801400000052,-4.20109576269901));
#292=CARTESIAN_POINT('',(-77.788,366.801400000089,15.7989042373011));
#293=CARTESIAN_POINT('',(-59.53175,366.801400000089,15.7989042373011));
#294=CARTESIAN_POINT('',(-77.788,366.801400000089,15.7989042373011));
#295=CARTESIAN_POINT('',(-59.53175,366.801400000052,-4.20109576269901));
#296=CARTESIAN_POINT('',(-59.53175,366.801400000089,15.7989042373011));
#297=CARTESIAN_POINT('',(-77.788,366.801400000052,-4.20109576269901));
#298=CARTESIAN_POINT('Origin',(-77.788,388.435850000051,-4.20109576269901));
#299=CARTESIAN_POINT('',(-77.788,388.435850000051,-4.20109576269901));
#300=CARTESIAN_POINT('',(-77.788,388.435850000051,-4.20109576269901));
#301=CARTESIAN_POINT('',(-59.53175,388.435850000051,-4.20109576269901));
#302=CARTESIAN_POINT('',(-59.53175,388.435850000051,-4.20109576269901));
#303=CARTESIAN_POINT('',(-77.788,388.435850000051,-4.20109576269901));
#304=CARTESIAN_POINT('Origin',(-77.788,413.435850000051,-164.201095762699));
#305=CARTESIAN_POINT('',(-77.788,413.435850000051,-164.201095762699));
#306=CARTESIAN_POINT('',(-77.788,413.435850000051,-164.201095762699));
#307=CARTESIAN_POINT('',(-59.53175,413.435850000051,-164.201095762699));
#308=CARTESIAN_POINT('',(-59.53175,413.435850000051,-164.201095762699));
#309=CARTESIAN_POINT('',(-77.788,413.435850000051,-164.201095762699));
#310=CARTESIAN_POINT('Origin',(-77.788,388.435850000051,-311.01));
#311=CARTESIAN_POINT('',(-77.788,388.435850000051,-311.01));
#312=CARTESIAN_POINT('',(-77.788,388.435850000051,-311.01));
#313=CARTESIAN_POINT('',(-59.53175,388.435850000051,-311.01));
#314=CARTESIAN_POINT('',(-59.53175,388.435850000051,-311.01));
#315=CARTESIAN_POINT('',(-77.788,388.435850000051,-311.01));
#316=CARTESIAN_POINT('Origin',(-77.788,510.317867574035,-311.01));
#317=CARTESIAN_POINT('',(-77.788,510.317867574035,-311.01));
#318=CARTESIAN_POINT('',(-77.788,510.317867574035,-311.01));
#319=CARTESIAN_POINT('',(-59.53175,510.317867574035,-311.01));
#320=CARTESIAN_POINT('',(-59.53175,510.317867574035,-311.01));
#321=CARTESIAN_POINT('',(-77.788,510.317867574035,-311.01));
#322=CARTESIAN_POINT('Origin',(-77.788,510.317867574035,-456.701095762699));
#323=CARTESIAN_POINT('',(-77.788,510.317867574035,-456.701095762699));
#324=CARTESIAN_POINT('',(-77.788,510.317867574035,-461.01));
#325=CARTESIAN_POINT('',(-59.53175,510.317867574035,-456.701095762699));
#326=CARTESIAN_POINT('',(-59.53175,510.317867574035,-461.01));
#327=CARTESIAN_POINT('',(-77.788,510.317867574035,-456.701095762699));
#328=CARTESIAN_POINT('Origin',(-77.788,210.882520473989,-456.701095762699));
#329=CARTESIAN_POINT('',(-77.788,210.882520473989,-456.701095762699));
#330=CARTESIAN_POINT('',(-77.788,683.79737593464,-456.701095762699));
#331=CARTESIAN_POINT('',(-59.53175,210.882520473989,-456.701095762699));
#332=CARTESIAN_POINT('',(-59.53175,683.79737593464,-456.701095762699));
#333=CARTESIAN_POINT('',(-77.788,210.882520473989,-456.701095762699));
#334=CARTESIAN_POINT('Origin',(-77.788,272.800465393469,15.798904237301));
#335=CARTESIAN_POINT('',(-77.788,272.800465393469,15.798904237301));
#336=CARTESIAN_POINT('',(-77.788,270.179600000051,-4.20109576269901));
#337=CARTESIAN_POINT('',(-59.53175,272.800465393469,15.798904237301));
#338=CARTESIAN_POINT('',(-59.53175,270.179600000051,-4.20109576269901));
#339=CARTESIAN_POINT('',(-77.788,272.800465393469,15.798904237301));
#340=CARTESIAN_POINT('Origin',(-77.788,366.801400000089,15.798904237301));
#341=CARTESIAN_POINT('',(-77.788,366.801400000089,15.798904237301));
#342=CARTESIAN_POINT('',(-59.53175,366.801400000089,15.798904237301));
#343=CARTESIAN_POINT('Origin',(-59.53175,318.490500000071,5.79890423730102));
#344=CARTESIAN_POINT('Origin',(-77.788,318.490500000071,5.79890423730102));
#345=UNCERTAINTY_MEASURE_WITH_UNIT(LENGTH_MEASURE(0.01),#349,
'DISTANCE_ACCURACY_VALUE',
'Maximum model space distance between geometric entities at asserted c
onnectivities');
#346=UNCERTAINTY_MEASURE_WITH_UNIT(LENGTH_MEASURE(0.01),#349,
'DISTANCE_ACCURACY_VALUE',
'Maximum model space distance between geometric entities at asserted c
onnectivities');
#347=(
GEOMETRIC_REPRESENTATION_CONTEXT(3)
GLOBAL_UNCERTAINTY_ASSIGNED_CONTEXT((#345))
GLOBAL_UNIT_ASSIGNED_CONTEXT((#349,#351,#352))
REPRESENTATION_CONTEXT('','3D')
);
#348=(
GEOMETRIC_REPRESENTATION_CONTEXT(3)
GLOBAL_UNCERTAINTY_ASSIGNED_CONTEXT((#346))
GLOBAL_UNIT_ASSIGNED_CONTEXT((#349,#351,#352))
REPRESENTATION_CONTEXT('','3D')
);
#349=(
LENGTH_UNIT()
NAMED_UNIT(*)
SI_UNIT(.MILLI.,.METRE.)
);
#350=(
LENGTH_UNIT()
NAMED_UNIT(*)
SI_UNIT($,.METRE.)
);
#351=(
NAMED_UNIT(*)
PLANE_ANGLE_UNIT()
SI_UNIT($,.RADIAN.)
);
#352=(
NAMED_UNIT(*)
SI_UNIT($,.STERADIAN.)
SOLID_ANGLE_UNIT()
);
#353=SHAPE_DEFINITION_REPRESENTATION(#354,#355);
#354=PRODUCT_DEFINITION_SHAPE('',$,#357);
#355=SHAPE_REPRESENTATION('',(#225),#347);
#356=PRODUCT_DEFINITION_CONTEXT('part definition',#361,'design');
#357=PRODUCT_DEFINITION('Right','Right',#358,#356);
#358=PRODUCT_DEFINITION_FORMATION('',$,#363);
#359=PRODUCT_RELATED_PRODUCT_CATEGORY('Right','Right',(#363));
#360=APPLICATION_PROTOCOL_DEFINITION('international standard',
'automotive_design',2009,#361);
#361=APPLICATION_CONTEXT(
'Core Data for Automotive Mechanical Design Process');
#362=PRODUCT_CONTEXT('part definition',#361,'mechanical');
#363=PRODUCT('Right','Right',$,(#362));
#364=PRESENTATION_STYLE_ASSIGNMENT((#365));
#365=SURFACE_STYLE_USAGE(.BOTH.,#366);
#366=SURFACE_SIDE_STYLE('',(#367));
#367=SURFACE_STYLE_FILL_AREA(#368);
#368=FILL_AREA_STYLE('ABS (White)',(#369));
#369=FILL_AREA_STYLE_COLOUR('ABS (White)',#370);
#370=COLOUR_RGB('ABS (White)',0.964705882352941,0.964705882352941,0.952941176470588);
ENDSEC;
END-ISO-10303-21;
